Collective Soul - She Said Chords & Tabs

 

She Said Chords & Tabs

Collective Soul Chords & Tabs

Version: 2 Type: Tab

She Said Tab

   
tune down 1/2 step

chords:
G:   320033
G/A: x00033
C9:  x32033

verse 1:
                      rhy. fig. 1:
                      eb|-------3-----------3----------------3--|
                      Bb|-----------3---3-----------------------|
                      Gb|---------------------------------------|
                      Db|-----0-----------0----------0----------|
                      Ab|-2h3---------2-------------------------|
                      Eb|----------------------3----------------|
She said that time is un-fair                 to  a  woman  her

eb|-------3-----------3-----------------3--|
Bb|-----------3---3------------------------|
Gb|----------------------------------------|
Db|-----0-----------0-----------0----------|
Ab|-2h3---------2--------------------------|
Eb|----------------------3-----------------|
  age.               And now that wisdom has

eb|-------3-----------3-----------------3--|
Bb|-----------3---3------------------------|
Gb|----------------------------------------|
Db|-----0-----------0-----------0----------|
Ab|-2h3---------2--------------------------|
Eb|----------------------3-----------------|
  come,                 everything else____

eb|-------3-----------3-----------------3--|
Bb|-----------3---3------------------------|
Gb|----------------------------------------|
Db|-----0-----------0-----------0----------|
Ab|-2h3---------2--------------------------|
Eb|----------------------3-----------------|
  _____fades.

rhy. fig. 2:
eb|-1------------------------------|-0-----------------------------------|
Bb|-1------------------------------|-1-----------------------------------|
Gb|-2------------------------------|-0-----------------------------------|
Db|-3------------------------------|-2-----------------------------------|
Ab|-3------------------------------|-3-----------------------------------|
Eb|-1------------------------------|-3-----------------------------------|
            She said she realizes            she's seen her better days.

verse 2:
(rhy. fig. 1)
She said she can't look back
to her days of youth.
What she thought were lies
she later found was truth.
(rhy.fig. 2)
She said her daddy had dreams,
but he drank them away.
(rhy. fig. 2)
And her mother's to blame,
for the way she is today.

chorus:
G              G/A  C9   
   Life's river shall rise. She said,
G               C9
   that only the strong shall survive. She said,
G                       C9  
   "But I'm feeling quite weak." She said,
G                       C9
   "Will you comfort and forgive (a)me?" Mm, (a)she said.
[ Tab from: http://www.guitartabs.cc/tabs/c/collective_soul/she_said_tab_ver_2.html ]
verse 3:
(rhy. fig. 1)
She said she's still searching
for salvation's light.
Yeah, she wishes all day,
I think she prays all night.
(rhy. fig. 2)
She said she won't speak of love,
'cause love she's never known.
(rhy. fig. 2)
And it's moments like these,
she hates to be alone.

solo:
eb|---------------------7/8-----|-----------------------------|
Bb|-6------------------------8--|-8---------------------------|
Gb|---------------------4/5-----|-----------------------------|
Db|-3------------------------5--|-5---------------------------|
Ab|-----------------------------|-----------------------------|
Eb|-----------------------------|-----------------------------|

eb|-7/8-------------------------|-7--8------------------------|
Bb|------8----------------------|--------8--------------------|
Gb|-4/5-----7-------------------|-4--5-------7----------------|
Db|------5----------------------|--------5--------------------|
Ab|---------5-------------------|------------5----------------|
Eb|-----------------------------|-----------------------------|

eb|---------------------7/8-----|-----------------------------|
Bb|-6------------------------8--|-8---------------------------|
Gb|---------------------4/5-----|-----------------------------|
Db|-3------------------------5--|-5---------------------------|
Ab|-----------------------------|-----------------------------|
Eb|-----------------------------|-----------------------------|

eb|-7--8------------------------|-7--8------------------------|
Bb|--------8--------------------|--------8--------------------|
Gb|-4--5-------7-----------7----|-4--5-------7-----------7----|
Db|--------5--------------------|--------5--------------------|
Ab|------------5-----------5----|------------5-----------5----|
Eb|-----------------------------|-----------------------------|

outro:
eb|-------3-----------3---------------3--|
Bb|-----------3---3----------------------|
Gb|--------------------------------------|
Db|-----0-----------0----------0---------|
Ab|-2h3---------2------------------------|
Eb|----------------------3---------------|
                        for-give      me.

eb|-------3-----------3---------------3--|
Bb|-----------3---3----------------------|
Gb|--------------------------------------|
Db|-----0-----------0----------0---------|
Ab|-2h3---------2------------------------|
Eb|----------------------3---------------|
                       (A)she    said__

eb|-------3-----------3---------------3--|
Bb|-----------3---3----------------------|
Gb|--------------------------------------|
Db|-----0-----------0----------0---------|
Ab|-2h3---------2------------------------|
Eb|----------------------3---------------|
                        for-give      me.

eb|-------3-----------3-----------|
Bb|-----------3---3----------3----|
Gb|--------------------------0----|
Db|-----0-----------0--------0----|
Ab|-2h3---------2-----------------|
Eb|----------------------3--------|
                       She  said__
                                                       
                                                         -julia