Collective Soul - Run Chords & Tabs

 

Run Chords & Tabs

Collective Soul Chords & Tabs

Version: 2 Type: Tab 0 ratings
1 star 2 stars 3 stars 4 stars 5 stars
comments

Run Tab

   
Regular tuning EBGDAE

Tabbed by: Elliott Metherd
Album: Dosage(1997)
Band: Collective Soul
Song: Run
Profile: I'm 16 years old.  I'm not a member of this website but I was looking for the 
of this song's chorus and no one had it, so i figured it out myself. Enjoy.

Chords:
  B     A    E   F#sus4   F#
--2-- --0-- --0-- --2--  --2--|
--4-- --2-- --0-- --2--  --2--|
--4-- --2-- --1-- --4--  --3--|
--4-- --2-- --2-- --4--  --4--|
--2-- --0-- --2-- --2--  --4--|
--2-- --0-- --0-- --2--  --2--|

v= vibrato
h= hammer on


Acoustic Part Verse 1, 2 and chorus:
Verse 1:
B
Are these..

A              E
I've never...before
          B     F#
....I've waited for

B
Now as...

A                    E
There's nothing.. Insure

    B       E
....messenger.

Chorus:
E         B       F#  F#sus4,  F#
Have I...long...run.

E         B       F#  F#sus4,  F#
Have I...long...run.
[ Tab from: http://www.guitartabs.cc/tabs/c/collective_soul/run_tab_ver_2.html ]
 E        B       F#  F#sus4
Run.....

Electric Guitar Chorus:

E--------------------------------------------------------------------|
B--------------------------------------------------------------------|
G--------9-----------11------11---------------11---------------------|
D-----9-----------9-------8h9---9-8--------8h9---9-8-----------------|
A--9-----------9--------------------9----------------9---------------|
E--------------------------------------------------------------------|


Verse 2:
Same as verse 1


Solo: Played with Wah
E----------------------------------------------------------------------|
B---13v-----13v------13-12--10-12----13v-----13v------13-12--10-12-----|
G----------------------------------------------------------------------|
D-------10------10-----------------------10------10--------------------|
A----------------------------------------------------------------------|
E----------------------------------------------------------------------|

The rest of the song is easy to follow.

Play the chorus 2X
Add Electric guitar chorus and Play 4X
Add Electric Solo And Play 2X
Comments