Collective Soul - Run Chords & Tabs

 

Run Chords & Tabs

Collective Soul Chords & Tabs

Version: 1 Type: Bass Tab 0 ratings
1 star 2 stars 3 stars 4 stars 5 stars
comments

Run Bass Tab

   
-------------------------------------------------------------------------------
			     RUN - Collective Soul
-------------------------------------------------------------------------------

Tabbed By : NewDysfunction (im Dustin)
e-mail: NewDysfunction@aol.com

Tuning: standard

it seemed like noone else wanted to tab it, so i did. i htink its rite,
it sounds good when i play with the song.

Intro (I dont think the bass is in the intro, but this is what it would do if it was)

           are these time contagious
G|--------------------------------------------------------------------------|
D|------------------------------2-2-2-2-2-2------------4-4-4-4-4-4----------|
A|-2-2-2-2-22-2-2-2-2------------------------2-2-2-2-2----------------------|
E|--------------------4-4-4-4-4---------------------------------------------|
  verse (same as intro w/ fewer b's at the begining)
[ Tab from: http://www.guitartabs.cc/tabs/c/collective_soul/run_btab.html ]
           as the hours pass us
G|--------------------------------------------------------------------------|
D|-------------------------2-2-2-2-2------------4-4-4-4-4-4-----------------|
A|-2-2-2-2-2-2-----------------------2-2-2-2-2------------------------------|
E|--------------4-4-4-4-4---------------------------------------------------|
   chorus (this is the last three notes of the verse)

           have I got a long way to run
G|--------------------------------------------------------------------------|
D|-2-2-2-2-2-----------4-4-4-4-4-4------------------------------------------|
A|-----------2-2-2-2-2------------------------------------------------------|
E|--------------------------------------------------------------------------|

thats pretty much it folks, if there is more, or you have improvements, complaints
feel free to email me at NewDysfunction@aol.com.
as allways play around with it, make  your own version, it dosent have to be exactly 
im shure mine ain't (im from the south).
ohh and the numbers arnt exactly rite, but i am shure you can figure it out with a 
patients. have fun, its a fun and easy song.
P.S. if anyone finds the solo tabs for the guitar, email them to me please.(put 
as the subject)


| /  slide up
| \  slide down
| h  hammer-on
| p  pull-off
| ~  vibrato
| +  harmonic
| x  Mute note
=============================================================================
Comments