Collective Soul - Reunion Chords & Tabs

 

Reunion Chords & Tabs

Collective Soul Chords & Tabs

Version: 3 Type: Tab

Reunion Tab

Tabbed by Ray Diaz.

This is a real easy solo that sounds and plays well on a Nylon String Guitar.

I believe the notes are all correct, but you may find other possitions that suit your 
style better. This one is real easy and comfortable to play.
[ Tab from: http://www.guitartabs.cc/tabs/c/collective_soul/reunion_tab_ver_3.html ]
e|--7--10--7--10--7-----|-----------------|-----------------|-------------------|
B|-------------------8--|-----------------|-----------------|-------------------|
G|----------------------|-----7-----9--7--|-----7-----9--7--|--------------6/8--|
D|----------------------|--9-----9--------|--9-----9--------|--5--7--5--7-------|
A|----------------------|-----------------|-----------------|-------------------|
E|----------------------|-----------------|-----------------|-------------------|

e|------7------|------7------|------7---7---8---10---8---7--|
B|----8---8-8--|----8---8----|----8---8---------------------|
G|--7----------|--7-------7--|--7---------------------------|
D|-------------|-------------|------------------------------|
A|-------------|-------------|------------------------------|
E|-------------|-------------|------------------------------|

e|------7------|------7---7--12--10--7-------|
B|----8---8-8--|----8---8---------------8----|
G|--7----------|--7--------------------------|
D|-------------|-----------------------------|
A|-------------|-----------------------------|
E|-------------|-----------------------------|