Collective Soul - Pretty Donna Chords & Tabs

 

Pretty Donna Chords & Tabs

Collective Soul Chords & Tabs

Version: 2 Type: Tab 0 ratings
1 star 2 stars 3 stars 4 stars 5 stars
comments

Pretty Donna Tab

   
           q  q  q  q     q  q  q  q       e  e  q  q  e  e
E-------|--------------|--------------||---------0--0--------|----------|
B-------|--------------|--------------||---------3--1--------|----------|
G---4:--|--------------|--------------||*-----0-----------0--|----------|
D---4:--|--------------|--------------||*--------------------|----------|
A-------|-----3-----3--|-----3-----3--||---------3-----3-----|----------|
C-------|--0-----0-----|--0-----0-----||---0--------0--------|----------|


    e  e  e  e  e  e  s s  e     e  e  q  q  e  e
E------0--3-------------------|--------0--0--------|--------------------|
B---3--------0-------------1--|--------3--1--------|--------------------|
G------------------0--0h2-----|-----0-----------0--|--------------------|
D-----------------------------|--------------------|--------------------|
A---------3-------------------|--------3-----3-----|--------------------|
C---0-----------0-------------|--0--------0--------|--------------------|

[ Tab from: http://www.guitartabs.cc/tabs/c/collective_soul/pretty_donna_tab_ver_2.html ]
    e  e  q  e  e  e  e     e  e  q  q  e  e     e  e  q  q  e  e
E------0--3--3-----------|-----------------5--|-----------------5--|----|
B---3--------------------|--------5--5--------|--------5--5--------|----|
G------------------0-----|--------------------|--------------------|----|
D------------------------|-----7--------------|-----7--------------|----|
A---------3-----------3--|--------8-----8-----|--------8-----8-----|----|
C---0-----------0--------|--5--------5--------|--5--------5--------|----|


    e  e  e^ e^ e^ q  e  e     s s  e  e  e  e  e
E---------------------------|-----------------------||------------------|
B------------5--------------|-------5--8------------||------------------|
G---------7-----7--5-----5--|--5h7--------5-----5--*||------------------|
D------7--------------------|----------------7-----*||------------------|
A---------8-----------8-----|----------8------------||------------------|
C---5--------------5--------|--5-------------5------||------------------|
Comments