Collective Soul - No More No Less Chords & Tabs

 

No More No Less Chords & Tabs

Collective Soul Chords & Tabs

Version: 1 Type: Tab 0 ratings
1 star 2 stars 3 stars 4 stars 5 stars
comments

No More No Less Tab

#----------------------------------PLEASE NOTE--------------------------------#

   #This file is the author's own work and represents their interpretation of the#

   #song. You may only use this file for private study, scholarship, or research.#

   #-----------------------------------------------------------------------------#


   Author/Artist: collective soul 
   Title: no more no less 
   Album: dosage 
   Transcribed by: j.s.l 
   Email: tabfeedback@yahoo.com 

   the solos aren't perfect but theyre pretty close 

   -----------------------|----14-------14-------14----12-11-12-14-14-|---------- 
   -5-------------------4-|-12-------12-------12----------------------|---------- 
   -4-------------------4-|-------------------------------------------|---------- 
   -----------------------|-------------------------------------------|---------- 
   -----------------------|-------------------------------------------|---------- 
   -----------------------|-------------------------------------------|---------- 
   intro/verse pre-chorus 

   ---9--11---11--9----11--------------|-----------------------------|----------- 
   ------------------------------------|---9---------------9---------|----------- 
   ------------------------------------|-------6---8-----------7---6-|----------- 
   ------------------------------------|-6---6---6-------6---6---6---|----------- 
   ------------------------------------|-----------------------------|----------- 
   ------------------------------------|-----------------------------|----------- 
   "save me come to - morr - ow...." fill 

   -2-x2-x2--x-x-x-----|--------------------------------------------------------- 
   -2-x2-x2--x-x-x-----|--------------------------------------------------------- 
   -2-x2-x2--x-x-x-----|--------------------------------------------------------- 
   ----------x-x-x-----|--------------------------------------------------------- 
   ----------x-x-x-----|--------------------------------------------------------- 
   ----------x-x-x-2-0-|--------------------------------------------------------- 
   post-chorus (2 times) 

   -------------------------------------|---------------------------------------- 
   ----12-10----10-12-------12----10-12-|---------------------------------------- 
   -11-------11----------11----11-------|---------------------------------------- 
   -------------------------------------|---------------------------------------- 
   -------------------------------------|---------------------------------------- 
   -------------------------------------|---------------------------------------- 
   this part is played with above (piano) 
[ Tab from: http://www.guitartabs.cc/tabs/c/collective_soul/no_more_no_less_tab.html ]
   ---------------------------14----16--14----16--14b16--|----------------------- 
   ------------------------------------------------------|----------------------- 
   -11----13--11----13--11b13----------------------------|----------------------- 
   ------------------------------------------------------|----------------------- 
   ------------------------------------------------------|----------------------- 
   ------------------------------------------------------|----------------------- 
   fill that comes before the solos 

   ----------------------------|------------------------------------|------------ 
   -0--/12-12\-----------------|------------------------------12----|------------ 
   -------------8-9-10-11------|--------------------9p8h11b13----11-|------------ 
   -----------------------11p9-|-9vv-----------11b12----------------|------------ 
   ----------------------------|----11vv10vv9vv---------------------|------------ 
   ----------------------------|------------------------------------|------------ 
   first solo 

   ------------------------------------------------------------------------------ 
   --------------------------14b15-14b15-14b15-14b15-14b15-14b15-14b15----14-12-- 
   -11-11------8h9h11--11h13-------------------------------------------13-------- 
   -------9h11--------9---------------------------------------------------------- 
   ------------------------------------------------------------------------------ 
   ------------------------------------------------------------------------------ 


   -------------------------/12-12-14----/12-12-14----/12-14-16-14--14p12h14-14-- 
   ----12----12----12-12--------------14-----------14---------------------------- 
   -13----13----13-------13------------------------------------------------------ 
   ------------------------------------------------------------------------------ 
   ------------------------------------------------------------------------------ 
   ------------------------------------------------------------------------------ 


   --------------------------|---------------------------|----------------------- 
   --------------------------|---------------------------|----------------------- 
   -11----13------11---------|-11----13------------------|----------------------- 
   -----------14-------------|-----------14--13----------|----------------------- 
   --------------------------|---------------------------|----------------------- 
   -----------------------14-|------------------------14-|----------------------- 
   second solo 

   ------------------------------------------------------------------------------ 
   --------------------------------------------------------11-13--------14b16*--- 
   -----------------13-14-13-------------------------13-14----------11----------- 
   -----------11-------------11----------------11-------------------------------- 
   ----14-------------------------------14--------------------------------------- 
   -14----------------------------14--------------------------------------------- 
   *=hold bend 

   --------------------|------------|-------------------------------------------- 
   -r14b16r14b16---17--|------------|-16h17p16h17p16h17p16h17p16h17-------------- 
   --------------------|------------|-------------------------------------------- 
   --------------------|------------|-------------------------------------------- 
   --------------------|------------|-------------------------------------------- 
   --------------------|------------|-------------------------------------------- 
   mess around with these notes finish with this 
Comments