Collective Soul - Home Chords & Tabs

 

Home Chords & Tabs

Collective Soul Chords & Tabs

Version: 1 Type: Tab 0 ratings
1 star 2 stars 3 stars 4 stars 5 stars
comments

Home Tab

   
this is home tab according to my ears..wendel
killersme@hotmail.com

Intro & Verse
E----------------------------------------------------|
B----------------------------------------------------|
G---------------2-------2-----2----------------------I
D----------------------------------------------------|
A--0------0-3-----0-3----0-3-------------------------I
E----------------------------------------------------|

Poetry of politics and lost entities
Government is loneliness on this we agree
High are the angels and low I decree
Love only burns when fueled by belief

Chorus:

C
Home, welcome home
               F
Take a little walk, take a little walk right through our
C
Home, this is home
               F
Take a little walk, take a little walk right through our...

Home!..OOoo OOoo


Climb up the mountains then slide to the seas
Beauty adores us on this we agree
God is a witness and God is a tease
Pick up your faith, yeah, everybody come with me

Chorus: x1
Bridge: C, F w/Solo x3
(Riff 1) x4
Chorus: x5
[ Tab from: http://www.guitartabs.cc/tabs/c/collective_soul/home_tab.html ]
E-----------------|-----------------|-------------------------------| 
B-12~~~\-8~~\-5~/-|-12~~~\-8~~\-5~/-|-10~~~\-8~~\-------------------| 
G-----------------|-----------------|-------------5~/-7~~~~-7~~-7~~-| 
D-----------------|-----------------|-------------------------------| 
A-----------------|-----------------|-------------------------------| 
E-----------------|-----------------|-------------------------------| 

E-----------------|-----------------| 
B-----------------|-----------------| 
G-9~~~~--7~~\-5~/-|-10~~~~-9~~\-7~\-| 
D-----------------|-----------------| 
A-----------------|-8------7----5---| 
E-----------------|-----------------| 

E-------13----13h15-13----15p13----13----13-------| 
B-13h15----17----------17-------17----17----------| 
G-------------------------------------------14h17-| 
D-------------------------------------------------| 
A-------------------------------------------------| 
E-------------------------------------------------| 

E-------13----13h15-13----17p15p13-19p17p15-19p15/--20~~-/ 
B-13h15----17----------17--------------------------------| 
G--------------------------------------------------------| 
D--------------------------------------------------------|
A--------------------------------------------------------| 
E--------------------------------------------------------|
Comments