Collective Soul - Him Chords & Tabs

 

Him Chords & Tabs

Collective Soul Chords & Tabs

Version: 1 Type: Tab

Him Tab

   
Riff one is played throughout this whole song, nonstop. Riff 2 is played
between verses (I indicated where in the lyrics). Enjoy! Rate please!

b = bend
r = let ring
~ = vibrato

Riff 1
[ Tab from: http://www.guitartabs.cc/tabs/c/collective_soul/him_tab.html ]
1/---------------------------------------------|
2/---------------------------------------------|
3/---------------0--------------0---------0----|
4/---------------------------------------------|
5/-----2----3---------2------------------------|
6/-------------------------3---------3---------|

Riff 2

1/-------------------------------------------------------------------------|
2/-------------------------------------------------------------------------|
3/--12--12b--12--10r----12--12b--12--10r----12--12b--12--10r---7-----------|
4/-----------------------------------------------------------------10~~----|
5/-------------------------------------------------------------------------|
6/-------------------------------------------------------------------------|