Collective Soul - Heavy Chords & Tabs

 

Heavy Chords & Tabs

Collective Soul Chords & Tabs

Version: 1 Type: Tab 0 ratings
1 star 2 stars 3 stars 4 stars 5 stars
comments

Heavy Tab

Song: Heavy
Artist: Collective Soul
Album: Dosage
Transcribed by: Ryan Quist
e-mail: soulphreak@hotmail.com

Tune down a 1/2 step 
The spacing isn't real accurate

Intro:

E|--------------------------------------------------------------|
B|--------------------------------------------------------------|
G|--------------------------------------------------------------|
D|--------------------------------------------------------------|
A|--------------------------------------------------------------|
E|--0-0-12-0-12-0-0-12-0-12-0--------0-0-12-0-12-0-0-12-0-12-0--|

E|--------------------------------------------------------------|
B|--------------------------------------------------------------|
G|--------------------------------------------------------------|
D|--------------------------------------------------------------|
A|--------------------------------------------------------------|
E|--0-0-12-0-12-0-0-12-0-12----------0-0-12-0-12-0-0-12-0-12----|

E|--------------------------------------------------------------|
B|--------------------------------------------------------------|
G|--------------------------------------------------------------|
D|--------------------------------------------------------------|
A|--------------------------------------------------------------|
E|--0-0-12-0-12-0-0-12-0-12----------0-0-12-0-12-0-0-12-0-12----|

E|--------------------------------------------------------------|
B|--------------------------------------------------------------|
G|--------------------------------------------------------------|
D|----------0-----------------------------0---------------------|
A|------------0---------0-1-2-1-0-----------0---------0-1-2-1-0-|
E|--0-0-0-0-----0-0-0-3-----------0-0-0-0-----0-0-0-3-----------|

E|------------------------------------------------|
B|------------------------------------------------|
G|------------------------------------------------|
D|----------0-----------------------------0-------|
A|------------0---------0-1-2-1-0-----------0-----|
E|--0-0-0-0-----0-0-0-3-----------0-0-0-0------0--|

Verse:

E|--------------------------------------------------------------|
B|--------------------------------------------------------------|
G|--------------------------------------------------------------|
D|--------------------------------------------------------------|
A|--5-----------------------------------------------------------|
E|--3-----------------------------------------------------------|

	1: Complicate this world you wrapped for me
	2: Hold me up to those whom you've deceived

E|--------------------------------------------------------------|
B|--------------------------------------------------------------|
G|--------------------------------------------------------------|
D|----------0-----------------------------0---------------------|
A|------------0---------0-1-2-1-0-----------0---------0-1-2-1-0-|
E|--0-0-0-0-----0-0-0-3-----------0-0-0-0-----0-0-0-3-----------|

E|--------------------------------------------------------------|
B|--------------------------------------------------------------|
G|--------------------------------------------------------------|
D|--------------------------------------------------------------|
A|--5-----------------------------------------------------------|
E|--3-----------------------------------------------------------|

	1: I'm acquainted with your suffering
	2: Promises you break, you still believe

E|--------------------------------------------------------------|
B|--------------------------------------------------------------|
G|--------------------------------------------------------------|
D|----------0-----------------------------0---------------------|
A|------------0---------0-1-2-1-0-----------0---------0-1-2-1-0-|
E|--0-0-0-0-----0-0-0-3-----------0-0-0-0-----0-0-0-3-----------|

Chorus 1:
[ Tab from: http://www.guitartabs.cc/tabs/c/collective_soul/heavy_tab.html ]
E|--------------------------------------------------------------------|
B|--------------------------------------------------------------------|
G|--------------------------------------------------------------------|
D|--7-------------------6---------------5-----------------------------|
A|--5-------------------4---------------3------------------5-----4----|
E|---------------------------------------------------------3-----2----|

     And all your weight, it falls on me, it brings me down

E|--------------------------------------------------------------------|
B|--------------------------------------------------------------------|
G|--------------------------------------------------------------------|
D|--7-------------------6---------------5-----------------------------|
A|--5-------------------4---------------3------------------5-----4----|
E|---------------------------------------------------------3-----2----|

     And all your weight, it falls on me, it falls on me

Chorus 2:

E|--------------------------------------------------------------------|
B|--------------------------------------------------------------------|
G|--------------------------------------------------------------------|
D|--7-------------------6---------------5-----------------------------|
A|--5-------------------4---------------3------------------5-----4----|
E|---------------------------------------------------------3-----2----|

     And all your weight, it falls on me, it brings me down

E|--------------------------------------------------------------------|
B|--------------------------------------------------------------------|
G|--------------------------------------------------------------------|
D|--7-------------------6---------------5-----------------------------|
A|--5-------------------4---------------3------------------5-----4----|
E|---------------------------------------------------------3-----2----|	

     And all your weight, it brings me down, it brings me down

E|--------------------------------------------------------------------|
B|--------------------------------------------------------------------|
G|--------------------------------------------------------------------|
D|--7-------------------6---------------5-----------------------------|
A|--5-------------------4---------------3------------------5-----4----|
E|---------------------------------------------------------3-----2----|
	
     And all your weight, it falls on me, it brings me down

E|--------------------------------------------------------------------|
B|--------------------------------------------------------------------|
G|--------------------------------------------------------------------|
D|--7-------------------6---------------5-----------------------------|
A|--5-------------------4---------------3------------------5-----4----|
E|---------------------------------------------------------3-----2----|
	
     And all your weight, it falls on me, it falls on me

Solo

E|----------------------------------------|
B|----------------------------------------|
G|----------------------------------------| repeat
D|----------------------------12-12-12-12-|   x3
A|----------------------------10-10-10-10-|
E|--0-0-12-0-12-0-0-12-0-12-0-------------|

* have not figured the rest out yet

Outro

E|--------------------------------------------------------------|
B|--------------------------------------------------------------|
G|--------------------------------------------------------------|
D|----------0-----------------------------0---------------------|
A|------------0---------0-1-2-1-0-----------0---------0-1-2-1-0-|
E|--0-0-0-0-----0-0-0-3-----------0-0-0-0-----0-0-0-3-----------|

E|----------------------------------------------|
B|----------------------------------------------|
G|----------------------------------------------|
D|----------0-----------------------------0-----|
A|------------0---------0-1-2-1-0-----------0---|
E|--0-0-0-0-----0-0-0-3-----------0-0-0-0-----0-|

Order

Intro
verse 1
chorus 1
verse 2
chorus 2
solo
chorus 1
outro

I think this is pretty close, e-mail any changes you may have.
Comments