Collective Soul - Heaven's Already Here Chords & Tabs

 

Heaven's Already Here Chords & Tabs

Collective Soul Chords & Tabs

Version: 2 Type: Tab 0 ratings
1 star 2 stars 3 stars 4 stars 5 stars
comments

Heaven's Already Here Tab

   
Collective Soul
song: Heavens Already Here
Album: Hints Allegations and Things Left Unsaid
Tabbed by: David  Rem870Expd@aol.com

intro x4
[-------------------------------------]
[-------------------------------------]
[---------------------------------0-0-]
[----------------------------0h2------]
[---------0h2--2-2--2h3--3-3----------]
[-3--3-3------------------------------]

    G
    Wake up to a new morning
C
Got my babe by my side
Am                         D
Now I won't yield to a new warning
C                       G
Cause I got my piece of mind
[ Tab from: http://www.guitartabs.cc/tabs/c/collective_soul/heavens_already_here_tab_ver_2.html ]
chorus x 4?
D                  C
Who could bring me heaven
                     G
When heavens already here

[---7-----8p7-----------]
[-8---8-8-----10-8------]
[-----------------------]
[-----------------------]
[-----------------------]
[-----------------------]

G
No more living in darkness

[-/-7--5--7-----]
[------------8--]
[---------------]
[---------------]
[---------------]
[---------------]

C
Now that love lights my way

[--/3--5--3--0--]
[---------------]
[---------------]
[---------------]
[---------------]
[---------------]

Am               D
I don't need any changes,
Dsus4
to make me love today

[--5/-7b--5------]
[------------8---]
[----------------]
[----------------]
[----------------]
[----------------]
^not sure about this
repeat chorus
then intro to end
Comments