Collective Soul - Gel Chords & Tabs

 

Gel Chords & Tabs

Collective Soul Chords & Tabs

Version: 2 Type: Tab 0 ratings
1 star 2 stars 3 stars 4 stars 5 stars
comments

Gel Tab

   
#----------------------------------PLEASE NOTE---------------------------------#
#This file is the author's own work and represents their interpretation of the #
#song. You may only use this file for private study, scholarship, or research. #
#------------------------------------------------------------------------------##
From: KHANIMRN@udavxb.oca.udayton.edu
Date: Sat, 26 Aug 1995 10:08:34 -0400 (EDT)
Subject: Gel by Collective Soul

The intro to Gel by Collective Soul goes like this.
This is my first try at something like this, please bear with me.

-------------------------------------------------
---------------------------------------------------------
------------------------------8-----8----------------------------
-----------------------------------------------------------------
-------------6--7-----------------------------------6--7---------------
-----6--7-----------6--7---------7----------6--7----------6--7---7-7-7----

-----------------------------------------------------------------
-----------------------------------------------------------------
------------------------------8-----8----------------------------
-----------------------------------------------------------------
-------------6--7-----------------------------------6--7---------
-----6--7-----------6--7---------7----------6--7----------6--7---

Then from there pause for the drum'd high hat a little and kick in the
distortion.


Date: Fri, 14 Jul 1995 06:40:13 -0700
From: nasta@IX.NETCOM.COM (John Nasta)

Gel by Collective Soul

^ = Hammer-on or pull-off

Intro (clean)
|--------------------------------------|
|--------------------------------------|
|--------------------------------------| (repeat twice)
|-----1^2-----1---1------1^2-----------|
|-1^2-----1^2---2----1^2-----1^2-2-2-2-|
|--------------------------------------|

It's all barre chords from here on.
The B's are played on the 7th fret - heavy distortion.

B (6 counts) E^F E^D (4 times)

Verse 1

B					   E^F E^D
Color me any color
Speak to me in tongues and share
Tell me how you'd love to hate me
Tell me how you'd love to care

A		     |-0^2-0^3-|<---(Bass run on low E string)
Well I just want to shake us up

B (6 counts) E^F E^D (2 times)

A (12 counts)				 |-0^2-0^3-0^5-|<---(Bass run on low 
E string)
Well I just want, well I just want to, to shake us up

Chorus
Bb^B Eb^E Bb^B Let's mingle
Bb^B Eb^E Bb^B And make it well
Bb^B Eb^E Bb^B Come together now
Bb^B Eb^E Bb^B Let's gel

B (6 counts) E^F E^D (2 times)

Verse 2

B					   E^F E^D
Color me in any fashion
Glitter to so mundane
Tell me how you'd love to change me
Tell me I can stay the same

A		     |-0^2-0^3-| <---(Bass run on low E string)
Well I just want to shake us up
[ Tab from: http://www.guitartabs.cc/tabs/c/collective_soul/gel_tab_ver_2.html ]
B (6 counts) E^F E^D (2 times)

A (12 counts)				 |-0^2-0^3-0^5-|<---(Bass run on low 
E string)
Well I just want, well I just want to, to shake us up

Chorus
Bb^B Eb^E Bb^B Let's mingle
Bb^B Eb^E Bb^B And make it well
Bb^B Eb^E Bb^B Come together now
Bb^B Eb^E Bb^B Let's gel

Solo (12 measures)


Chorus
Bb^B Eb^E Bb^B Let's mingle
Bb^B Eb^E Bb^B And make it well
Bb^B Eb^E Bb^B Come together now
Bb^B Eb^E Bb^B Let's gel
Bb^B Eb^E Bb^B Well let's bungle
Bb^B Eb^E Bb^B And live to tell
Bb^B Eb^E Bb^B How we came together
Bb^B Eb^E Bb^B Yeah how we gelled

B (6 counts) E^F E^D (4 times)


Gel by Collective Soul
Tabbed by - Terry Sitts (terry.sitts@onlinesys.com)

Intro (clean)
|---------------------------------------------|
|---------------------------------------------|
|---------------------------------------------|
|---------------------------------------------|
|-----------6-7-----6---6----------6-7--------|
|-----4/6-7-----6-7---7------4/6-7-----6-7----|
(repeat twice)

Verse (heavy distortion)
|------------------------------------------|
|------------------------------------------|
|------------------------------------------|
|-----9-9------9---9---9---9-/-10--9-\-7---|
|-----9-9------9---9---9---7-/-8---7-\-5---|
|-----7-7---7--7---7---7-------------------|
            PM

Chorus
|--------------------------------------|
|--------------------------------------|
|--------7/8---------------------------|
|--7/8---7/8---7/8---8-8-8-8-8-8-------|
|--7/8---6/7---7/8---8-8-8-8-8-8-------|
|--6/7---------6/7---7-7-7-7-7-7-------|


Riff (Comes between verse & chorus)
|-----------------------------|
|-----------------------------|
|-----------------------------|
|---7-------------------------|
|---7-------------------------|
|---5--------------0-2-0-3-0--|

The solo seems to be based on Bm pentatonic.

Comments or corrections???
~~~
 * VbReader 2.2 #NR *



From: terry.sitts@onlinesys.com (TERRY SITTS)
Date: Mon, 31 Jul 1995 17:36:00 -0400

Gel by Collective Soul
Update by Terry Sitts (terry.sitts@onlinesys.com)

Doh!!!  I noticed a big typo in my tab for Gel.  The chorus should be:

Chorus
|--------------------------------------|
|--------------------------------------|
|--------8/9---------------------------|
|--8/9---8/9---8/9---9-9-9-9-9-9-9-9---|
|--8/9---6/7---8/9---9-9-9-9-9-9-9-9---|
|--6/7---------6/7---7-7-7-7-7-7-7-7---|

And NOT what I had tabbed out before.

Funny, I played it the way I have it above, but tabbed it out wrong.  A big
DOH!!!
~~~
 * VbReader 2.2 #NR * 

Comments