Collective Soul - Forgiveness Chords & Tabs

 

Forgiveness Chords & Tabs

Collective Soul Chords & Tabs

Version: 3 Type: Bass Tab 0 ratings
1 star 2 stars 3 stars 4 stars 5 stars
comments

Forgiveness Bass Tab

   
-----------------------------------------------------------------------------
			     Forgiveness - Collective Soul
-----------------------------------------------------------------------------

Tabbed By : NewDysfunction
e-mail: NewDysfunction@aol.com   Feel free to message me on AIM.

Tuning: Standard E,A,D,G tuning

This is a very clean high tone song, I tabed it before I realised someone else 
already had. I agree with the other tab in most aspects, but I feel the high 
tone notes fits the song better. it also sounds good to pluch the strings
over the 24th fret instead of the pickups. Also, try sliding between sum of 
the notes.
[ Tab from: http://www.guitartabs.cc/tabs/c/collective_soul/forgiveness_btab_ver_3.html ]
				Verse
You come in with the second guitar.
G|--------------------------------------------------------------------------|
D|--------------------------------------------------------------------------|
A|--------------------------------------------------------------------------|
E|12--12-12---7--7-7---8--8-8---3--3-3--------------------------------------|
				
				Bridge
This is the only part that I dissagree with the other tab on, there is a small
climb down after the 12's
G|--------------------------------------------------------------------------|
D|--------------------------------------------------------------------------|
A|--------------------------------------------------------------------------|
E|10-10-10-10-10-10-10-10-10-10-10-10-10-10-10-10-10-10--12-12-12-12-12-12--|

G|--------------------------------------------------------------------------|
D|--------------------------------------------------------------------------|
A|--------------------------------------------------------------------------|
E|10-10--8-8-8-8-8-8-8-8----------------------------------------------------|
			      
		              Chorus/Outro
G|--------------------------------------------------------------------------|
D|--------------------------------------------------------------------------|
A|--------------------------------------------------------------------------|
E|3-3-3-3-3-3-3-3--12-12-12-12-12-12-12--8-8-8-8-8-8-8-8--3-3-3-3-3-3-3-3---|

			Guitar Solo/Chorus Variation
After the guitar solo the music will get a little bit quiter, just hold that last 3
G|--------------------------------------------------------------------------|
D|--------------------------------------------------------------------------|
A|-----------------7-7-7-7-7-7-5-5------------------------------------------|
E|3-3-3-3-3-3-5-5-------------------8-8-8-8-8-8-7-7--3-3-3-3-3-3-3-3--------|

I'm proud of this tab, so please vote on mine as well as the other.
Have fun

| /  slide up
| \  slide down
| h  hammer-on
| p  pull-off
| ~  vibrato
| +  harmonic
| x  Mute note
=============================================================================
Comments