Collective Soul - Energy Chords & Tabs

 

Energy Chords & Tabs

Collective Soul Chords & Tabs

Version: 2 Type: Tab 0 ratings
1 star 2 stars 3 stars 4 stars 5 stars
comments

Energy Tab

this is my first tab, and i've only been playing for about... a half year, i'm pretty 
this tab is right, its not that hard, i was just messing around playing with it, and you 
listen to it to get the rhythems, but its all downstroke

intro/verse (distorted) just play along with the lyric's
[ Tab from: http://www.guitartabs.cc/tabs/c/collective_soul/energy_tab_ver_2.html ]
1|-------------------------------------------------------------------------|
2|-------------------------------------------------------------------------|
3|-------------------------------------------------------------------------|
4|-7-7-7-7-7-7-7-7-7-7-7-7-8-8-8-8-8-8-8-8-8-8-8-8-9-9-9-9-9-9-9-9-9-9-9-9-|
5|-7-7-7-7-7-7-7-7-7-7-7-7-8-8-8-8-8-8-8-8-8-8-8-8-9-9-9-9-9-9-9-9-9-9-9-9-|
6|-5-5-5-5-5-5-5-5-5-5-5-5-6-6-6-6-6-6-6-6-6-6-6-6-7-7-7-7-7-7-7-7-7-7-7-7-|

chorus (clean)

1|-------------------------------------------------------------------------|
2|-------------------------------------------------------------------------|
3|-------------------------------------------------------------------------|
4|-7-7-7-7-7-7-7-7-7-7-7-7-6-6-6-6-6-6-6-6-6-6-6-6-9-9-9-9-9-9-9-9-9-9-9-9-|
5|-7-7-7-7-7-7-7-7-7-7-7-7-6-6-6-6-6-6-6-6-6-6-6-6-9-9-9-9-9-9-9-9-9-9-9-9-|
6|-5-5-5-5-5-5-5-5-5-5-5-5-4-4-4-4-4-4-4-4-4-4-4-4-7-7-7-7-7-7-7-7-7-7-7-7-|

bridge (distorted)

1|----------------------|
2|----------------------|
3|----9----9----9---9---|
4|---8----8-8--8---8-8--|
5|--7----7----7---7---7-|
6|-5----5----5---5------|

thats it, 3 riffs enjoy :-D
Comments