Collective Soul - December Chords & Tabs

 

December Chords & Tabs

Collective Soul Chords & Tabs

Version: 3 Type: Tab 6 ratings
1 star 2 stars 3 stars 4 stars 5 stars
comments

December Tab

artist: Collective Soul
track: December
album: Collective Soul
pm= palm muting

Intro\verses
E-----------3------|-----------3------|----------3-------|------------------ |
B-----3---3---3----|----3----3---3----|----3---3---3-----|----3------------- |
G---0---0-------0--|--0---0--------0--|--0---0-------0---|--0---0---0---0--- |
D------------------|------------------|------------------|------------------ |
A------------------|------------------|3-----------------|1-------1---2----- |
E-3----------------|1-----------------|------------------|------------------ |

chorus--strum
E-3-------3-3-3----|-3-------3-3-3----|-3-------3-3-3----|-3-------3-3-3---- |
B-3-------3-3-3----|-3-------3-3-3----|-3-------3-3-3----|-3-------3-3-3---- |
G-0-------0-0-0----|-0-------0-0-0----|-0-------0-0-0----|-0-------0-0-0---- |
D-0-------0-0-0----|-0-------0-0-0----|-0-------0-0-0----|-0-------0-0-0---- |
A-0-------0-0-0----|-0-------0-0-0----|-3-------3-3-3----|-1-------1-1-1---- |
E-3-------3-3-3----|-1-------1-1-1----|------------------|------------------ |
[ Tab from: http://www.guitartabs.cc/tabs/c/collective_soul/december_tab_ver_3.html ]
Near the end guitar 2 plays this while guitar 1 strums during the chorus
you should listen to the song to get the ryhtm right on this part
E-3--3--3-5-3-0----|-1--1--1-3-1-0----|------------------|------------------ |
B-3--3--3-3-3-0----|-1--1--1-1-1-0----|-5--5--5-5-5-0----|-3--3--3-3--3----- |
G------------------|------------------|-5--5--5-7-5-0----|-3--3--3-5--3----- |
D------------------|------------------|------------------|---------^-------- |
A------------------|------------------|------------------|-------hold------- |
E------------------|------------------|------------------|------------------ |

near the end the lyrics fall out and you hear a palm muted part

E------------------|------------------|------------------|------------------ |
B------------------|------------------|------------------|------------------ |
G-0-0-0-0-0-0-0-0--|-0-0-0-0-0-0-0-0--|-0-0-0-0-0-0-0-0--|-3-3-3-3-3-3-3-3-0 |
D-5-5-5-5-5-5-5-5--|-3-3-3-3-3-3-3-3--|-2-2-2-2-2-2-2-2--|------------------ |
A-\-------------/--|-\-------------/--|-3-3-3-3-3-3-3-3--|------------------ |
E--\-----------/---|--\-----------/---|-\-------------/--|------------------ |
         pm		   pm			pm	   slowly let the pm off here

	i wrote this sith the song on repeat and from playing it myself so it should be right
Comments