Collective Soul - December Chords & Tabs

 

December Chords & Tabs

Collective Soul Chords & Tabs

Version: 1 Type: Tab 6 ratings
1 star 2 stars 3 stars 4 stars 5 stars
comments

December Tab

   
This song is really easy once you get it

Intro, verses
[ Tab from: http://www.guitartabs.cc/tabs/c/collective_soul/december_tab.html ]
Dsus4               Csus2            Gsus2            Csus2   Repeat a few times
E------------3-----|-----------3----|-----------3----|-----------3--- |
B------3---3---3---|-----3---3---3--|-----3---3---3--|-----3---3---3- |
G--------2--------2|-------0-------0|-------0-------0|-------0------0.|
D-0-0--------------|----------------|----------------|---------------.|
A------------------|-3-3------------|----------------|-3-3----------- |
E------------------|----------------|-3-3------------|--------------- |

Chorus

Just strum the cords, Dsus4, Csus2, Gsus2


Ending

Dsus4               Csus2            Gsus2
E------------3-----|-----------3----|-----------3----|---------------- |
B------3---3---3---|-----3---3---3--|-----3---3---3--|---------------- |
G--------2--------2|-------0-------0|-------0-------0|----------------.|
D-0-0--------------|----------------|----------------|-------------0--.|
A------------------|-3-3------------|----------------|-3-3-3-0-3-3---- |
E------------------|----------------|-3-3------------|---------------- | 
Comments