Collective Soul - December Chords & Tabs

 

December Chords & Tabs

Collective Soul Chords & Tabs

Version: 2 Type: Bass Tab 0 ratings
1 star 2 stars 3 stars 4 stars 5 stars
comments

December Bass Tab

Song Title: December(whole song)
Artist: Collective Soul
----------------------------------------------

best viewed using courier new font

COLLECTIVE SOUL - "December" - Bass Tab

Verse:
|-----------|
|*-R-R-R-R-*|
|*---------*|(x24)
|-----------|
   1 2 3 4 
Chorus:
|---------|---------|---------|----------|
|*--------|---------|---------|---------*|
|*--------|---------|-3---3---|-1---1-2-*|(x2)
|-3---3---|-1---1---|---------|----------|
  1 2 3 4   1 2 3 4   1 2 3 4   1 2 3 4

|-----------------|-----------------|-----------------|
|*----------------|-----------------|-----------------|
|*----------------|-----------------|-3-3-3-3-3-3-3-3-|
|-3-3-3-3-3-3-3-3-|-1-1-1-1-1-1-1-1-|-----------------|
  1 & 2 & 3 & 4 &   1 & 2 & 3 & 4 &   1 & 2 & 3 & 4 &

|------------------|
|-----------------*|
|-1-1-1-1-1-2-1---*|(x2)
|---------------3--|
  1 & 2 & 3 & 4 &

Verse
[ Tab from: http://www.guitartabs.cc/tabs/c/collective_soul/december_btab_ver_2.html ]
Chorus 2:
|---------|---------|---------|----------|
|*--------|---------|---------|---------*|
|*--------|---------|-3---3---|-1---1-2-*|(x4)
|-3---3---|-1---1---|---------|----------|
  1 2 3 4   1 2 3 4   1 2 3 4   1 2 3 4

|-----------------|-----------------|-----------------|
|*----------------|-----------------|-----------------|
|*----------------|-----------------|-3-3-3-3-3-3-3-3-|
|-3-3-3-3-3-3-3-3-|-1-1-1-1-1-1-1-1-|-----------------|
  1 & 2 & 3 & 4 &   1 & 2 & 3 & 4 &   1 & 2 & 3 & 4 &

|------------------|
|-----------------*|
|-1-1-1-1-1-2-1---*|(x2)
|---------------3--|
  1 & 2 & 3 & 4 &

Rest(8 bars)

'December..' Chorus:
|-----------------|-----------------|-----------------|
|*----------------|-----------------|-----------------|
|*----------------|-----------------|-3-3-3-3-3-3-3-3-|
|-3-3-3-3-3-3-3-3-|-1-1-1-1-1-1-1-1-|-----------------|
  1 & 2 & 3 & 4 &   1 & 2 & 3 & 4 &   1 & 2 & 3 & 4 &

|------------------|
|-----------------*|
|-1-1-1-1-1-2-1---*|(x8)
|---------------3--|
  1 & 2 & 3 & 4 &

End:
|-----------|
|*-R-R-R-R-*|
|*---------*|(x4)
|-----------|


Submitted by:  Jo Taylor (viking@powerup.com.au)
Comments