Collective Soul - December Chords & Tabs

 

December Chords & Tabs

Collective Soul Chords & Tabs

Version: 1 Type: Bass Tab 0 ratings
1 star 2 stars 3 stars 4 stars 5 stars
comments

December Bass Tab

Song Title: December(whole song)
Artist: Collective Soul
For Bass Guitar
----------------------------------------------
By Andrew





Chorus:
|---------|---------|---------|----------|
|*--------|---------|---------|---------*|
|*--------|---------|-3-------|-1---1-2-*|(Follow Guitar)
|-3-------|-1-------|---------|----------|
  1 2 3 4   1 2 3 4   1 2 3 4   1 2 3 4

|-----------------|-----------------|-----------------|
|*----------------|-----------------|-----------------|
|*----------------|-----------------|-3-3-3-3-3-3-3-3-|
|-3-3-3-3-3-3-3-3-|-1-1-1-1-1-1-1-1-|-----------------|
  1 & 2 & 3 & 4 &   1 & 2 & 3 & 4 &   1 & 2 & 3 & 4 &

|------------------|
|-----------------*|
|-1-1-1-1-1-2-1---*|(Follow Guitar)
|---------------3--|
  1 & 2 & 3 & 4 &

Verse
[ Tab from: http://www.guitartabs.cc/tabs/c/collective_soul/december_btab.html ]
Chorus 2:
|---------|---------|---------|----------|
|*--------|---------|---------|---------*|
|*--------|---------|-3-------|-1---1-2-*|(Follow Guitar)
|-3-------|-1-------|---------|----------|
  1 2 3 4   1 2 3 4   1 2 3 4   1 2 3 4

|-----------------|-----------------|-----------------|
|*----------------|-----------------|-----------------|
|*----------------|-----------------|-3-3-3-3-3-3-3-3-|
|-3-3-3-3-3-3-3-3-|-1-1-1-1-1-1-1-1-|-----------------|
  1 & 2 & 3 & 4 &   1 & 2 & 3 & 4 &   1 & 2 & 3 & 4 &

|------------------|
|-----------------*|
|-1-1-1-1-1-2-1---*|(x2)
|---------------3--|
  1 & 2 & 3 & 4 &

Rest(8 bars)

'December..' Chorus:
|-----------------|-----------------|-----------------|
|*----------------|-----------------|-----------------|
|*----------------|-----------------|-3-3-3-3-3-3-3-3-|
|-3-3-3-3-3-3-3-3-|-1-1-1-1-1-1-1-1-|-----------------|
  1 & 2 & 3 & 4 &   1 & 2 & 3 & 4 &   1 & 2 & 3 & 4 &

|------------------|
|-----------------*|
|-1-1-1-1-1-2-1---*|(x8)
|---------------3--|
  1 & 2 & 3 & 4 &

End:
|-----------|
|*-R-R-R-R-*|
|*---------*|(x4)
|-----------|



Comments