Collective Soul - Dandy Chords & Tabs

 

Dandy Chords & Tabs

Collective Soul Chords & Tabs

Version: 1 Type: Tab 0 ratings
1 star 2 stars 3 stars 4 stars 5 stars
comments

Dandy Tab

   
Artist:  Collective Soul
Song:  Dandy Life
Album:  Dosage
Tab:  Tim Marshall
Email:  TimDogg81@prodigy.com
I saw that this song was requested so here's the tab.  I don't
tab a lot of songs so give me a break if it's a little messed
up.  Any requests or comments email me.

~ - vibrato
b - bend
r - release

Tune Down 1/2 Step:  Eb Ab Db Gb Bb Eb

Verses (clean guitar):
|--1-1-1-1--x--1-1-1-1--|
|--1-1-1-1--x--1-1-1-1--|
|--2-2-2-2--x--2-2-2-2--| repeat over and over
|--3-3-3-3--x--3-3-3-3--|
|-----------------------|
|-----------------------|

- The bass notes for the verses are as followed (listen to the 
  cd for the rhythm)
|-----------|
|-----------|
|-----------|
|-----------|
|-----------|
|--1--3--5--|

Lead into chorus (dist.):
             ring----|
|------------13b~~~----|
|--13br--11------------|
|----------------------|
|----------------------|
|----------------------|
|----------------------|

Chorus:
- listen to cd for rhythm

|--1--3--1--1--|
|--1--5--1--3--|
|--2--5--2--3--|
|--3--5--3--3--|
|--3--3--3--1--|
|--1--3--1--1--|

Chords played under solo:
|--1--1--3--|
|--3--1--5--|
|--3--2--5--|
|--3--3--5--|
|--1--3--3--|
|--1--1--3--|
[ Tab from: http://www.guitartabs.cc/tabs/c/collective_soul/dandy_tab.html ]
Solo:
|------------------------------------------------------|
|--6/11--11-11-11-11-11--10-10--6-6--6-6-6-6-6--8-8-8--|
|------------------------------------------------------|
|------------------------------------------------------|
|------------------------------------------------------|
|------------------------------------------------------|
|------------------------------------------------------|
|--8/11--11-11-11-11-11--10-10--10/13--13-13-13-13-13--|
|------------------------------------------------------|
|------------------------------------------------------|
|------------------------------------------------------|
|------------------------------------------------------|
|-----------------------------------------------------|
|--11-11--10-10--10-10-10-10--11-11--10---------------|
|----------------------------------------10-10-10-10--|
|-----------------------------------------------------|
|-----------------------------------------------------|
|-----------------------------------------------------|

|--------------------------------------------|
|--------------------------------------------|
|--10-10-10-10--7--9/10--9-9---7--9/10--9-9--|
|--------------------------------------------|
|--------------------------------------------|
|--------------------------------------------|

|----------------------------------------------------|
|----------------------------------------------------|
|--9/12--9--8-8---9/12--9--8-8--5--5-5-5-5--7-7-7-7--|
|----------------------------------------------------|
|----------------------------------------------------|
|----------------------------------------------------|

|------------------------|
|------------------------|
|--9-9-9-9--10-10-10-10--|
|------------------------|
|------------------------|
|------------------------|

Bridge After Solo (clean guitar, one strum each):
E--1--0--1--1--|
B--1--1--1--3--|
G--2--0--2--3--|
D--3--2--3--3--|
A-----3-----1--|
E-----------1--|

Outro:
- For that strange ending, on the last chorus instead of playing 
    
   F C F A#, play:  F C A#  then F A# C

There you go.

Comments