Collective Soul - Crowded Head Chords & Tabs

 

Crowded Head Chords & Tabs

Collective Soul Chords & Tabs

Version: 1 Type: Bass Tab 0 ratings
1 star 2 stars 3 stars 4 stars 5 stars
comments

Crowded Head Bass Tab

Intro/outro

G|-----------------------(18)----------------------------------|
D|-----(16)h(18)(16)(16)------------(16)h(18)(16)(16)----------|
A|-------------------------------------------------------------|
E|--9----------------------------9-----------------------------|  x2

Verse

G|-------------------------------------------------------------|
D|-------------------------------------------------------------|
A|----45-------------------------------------------------------|
E|--5----5--220000--220000--220000--220000---------------------|  x2

Chorus/Breakdown
[ Tab from: http://www.guitartabs.cc/tabs/c/collective_soul/crowded_head_btab.html ]
G|-------------------------------------------------------------|
D|-------------------------------------------------------------|
A|--2222222222222222-------------------------------------------|
E|-------------------0000000000000000--------------------------|

Bridge

G|--------------------------------------------------------------------|
D|--------------------------------------------------------------------|
A|------------------22222222222/(14)(14)(14)(14)(14)(12)--------------|
E|--44--44--55--55--------------------------------------(14)(12)(13)--|

continued
G|--------------------------------------------------------------|
D|--------------------------------------------------------------|
A|------------------2-------------------------------------------|
E|--44--44--55--55----------------------------------------------|


That gets me through it with no complaints, but if there is an easier way or a better 
to play it, feel free to correct.  manof3200@msn.com
Comments