Collective Soul - Counting The Days Chords & Tabs

 

Counting The Days Chords & Tabs

Collective Soul Chords & Tabs

Version: 3 Type: Tab 0 ratings
1 star 2 stars 3 stars 4 stars 5 stars
comments

Counting The Days Tab

   
Counting The Days
Collective Soul
tabbed by: Bob Krisik
bkrisik@yahoo.com


Tuned Down Half Step

Intro and Verse Riff:
e-------------------------------|
b-------------------------------|
g-------------------------------|
D--22---2--2-------2---------2--|
A--22---2--2-------2---------2--|
E--00-3-0--0-3--5--0-3-55-3--0--|

Chorus:
C            G
Counting the Days    (yeah)
D                      A
'Til Some Freedom can Scream My name
C            G
Counting the Days    (yeah)
D               A
'Til the gods, Break these chains.

Bridge:
E5
Dig it, get it, Dig it what your looking for?
G5
Dig it, get it, Dig it what your searching for?
A5
Dig it, get it, Dig it Yeah Dig............Yeah Dig!

Intro Riff 2 times

Solo (Over Riff)

[ Tab from: http://www.guitartabs.cc/tabs/c/collective_soul/counting_the_days_tab_ver_3.html ]
e|-12----10--------------------------------|
B|----12----10-12----10-------10-----------|
G|----------------12----9--12----12-11-9---|
D|-----------------------------------------|
A|-----------------------------------------|
E|-----------------------------------------|

e|-12----10--------------------------------|
B|----12----10-12----10----------10----10--|
G|----------------12----9--11-12----12-----|
D|-----------------------------------------|
A|-----------------------------------------|
E|-----------------------------------------|

e|-------------------------------------------------------------------|
B|----------------------------------------------------------15-17~~--|
G|-------------------------------------------------------------------|
D|--/12-14-12-14-----/12-14-12-14-----/12-14-12-14-12-14-14----------|
A|-------------------------------------------------------------------|
E|--------------12\---------------12\--------------------------------|

Lyrics:


Verse 1:

Hey Baby are you listening
I've battened all the hatches down
I've taken all of your prescriptions
But no remedy I've found

Verse 2:

Hey Baby are you watching
I'm sattled in for your side show
Well, I'm never one to be compressous
Cause life is so touch and go
Comments