Collective Soul - Counting The Days Chords & Tabs

 

Counting The Days Chords & Tabs

Collective Soul Chords & Tabs

Version: 2 Type: Tab 0 ratings
1 star 2 stars 3 stars 4 stars 5 stars
comments

Counting The Days Tab

   
-----------------------------------------------------------------------------
                 Counting the Days - Collective Souls
-----------------------------------------------------------------------------

band: collective souls
song: counting the days

tunging: Drop D (E B G D A D) not sure if this is the right tab, because i was working
offf the live version, but i think its good, i was hoping i'll be the first with the
song, oh well, well, he doesnt have points......yet

intro/verse
E|-----------------------------|
B|-----------------------------|
G|-----------------------------|
D|-1-2-1--1-2-1----1-2-1--7765-|
A|-1-2-1--1-2------1-2-1--7765-|
D|-1-2-1--1-2------1-2-1--7765-|
[ Tab from: http://www.guitartabs.cc/tabs/c/collective_soul/counting_the_days_tab_ver_2.html ]
chorus
E|---------|
B|---------|
G|-----6---|
D|-7-4-6-6-| GTR.1
A|-7-4-4-6-|
D|-7-4---6-|

chorus, 2x
E|-------|----------|--------------------|
B|-------|----------|--------------------|
G|-8p7h8-|-11p10h11-|-11-10-8--11-10-8-6-|
D|-------|----------|--------------------|
A|--(8x)-|---(8x)---|--------------------|
D|-------|----------|--------------------|

solo - this is the all i mostly know, i couldnt get the end of the solo, well, i tried,
thought i failed you guys
E|-14--13--11-------------------14--13--11----------------|
B|---14--14--11-11p10p8-----------14--14--11-11p10p8--7^--|
G|----------------------11-9-8^----------------------8----|
D|--------------------------------------------------------|
A|--------------------------------------------------------|
D|--------------------------------------------------------|
Comments