Collective Soul - Compliment Acoustic Chords & Tabs

 

Compliment Acoustic Chords & Tabs

Collective Soul Chords & Tabs

Version: 1 Type: Tab 0 ratings
1 star 2 stars 3 stars 4 stars 5 stars
comments

Compliment Acoustic Tab

   
Compliment by Collective Soul
Acoustic version from the new release titled "From the Ground Up"

Tune Down 1/2 step

C, F, C, F, C, F
Now I've taken the side
Of a beautiful calm
Can you see this disguise
Fading to a resolve

Am, F, C, G
And there it goes my innocence
While gathering up a compliment
And here I lie with words to swear
There's something more than
The world out there

C, F, C, F, C, F
Hesitation compounds
I've nothing left to sustain
My worries here have allowed
A momentary refrain
[ Tab from: http://www.guitartabs.cc/tabs/c/collective_soul/compliment_acoustic_tab.html ]
Am, F, C, G
And there it goes my innocence
While gathering up a compliment
And here I lie with words to swear
There's something more
Than the world out there

Second guitar over chords Am, F, C, G for Chorus the second+ times:
---------------------15---------15---------------|
-----------------------------13---------13-------|
-----9-10-12-9-----------------------------------|
-------------------------------------------------|
-------------------------------------------------|
-------------------------------------------------|

In between chorus and verse the second time, play this over C, F, C, F chords:
---------------------------------------------------|
---------------------------------------------------|
-----9-9-10-10--10h12---9-7-5-7-9-9---9h10--10h12--|
---------------------------------------------------|
---------------------------------------------------|
---------------------------------------------------|
Comments