Collective Soul - Better Now Chords & Tabs

 

Better Now Chords & Tabs

Collective Soul Chords & Tabs

Version: 2 Type: Tab 0 ratings
1 star 2 stars 3 stars 4 stars 5 stars
comments

Better Now Tab

                           COLLECTIVE SOUL
                             BETTER NOW


STANDARD TUNING
EADGBe


intro palm muted
---------------|
---------------|
---4-4-4-4-----|
---4-4-4-4-----|x2
---2-2-2-2-----|
---------------|

--------------------------------------------------|
--------------------------------------------------|
-4-4-4---2-----2-2-2-2-4-4-4--4-7-7--2--2-2-2-----|
-4-4-4---2-2---2-2-2-2-4-4-4--4-7-7--2--2-2-2-----|x3
-2-2-2---0-2---0-0-0-0-2-2-2--2-5-5--0--0-0-0-----|
-----------0--------------------------------------|

chorus
[ Tab from: http://www.guitartabs.cc/tabs/c/collective_soul/better_now_tab_ver_2.html ]
--------------------------------------------------|
--------------------------------------------------|
-4-4-4---2-----2-2-2-2-4-4-4--4-7-7--2--2-2-2-----|
-4-4-4---2-2---2-2-2-2-4-4-4--4-7-7--2--2-2-2-----|x3
-2-2-2---0-2---0-0-0-0-2-2-2--2-5-5--0--0-0-0-----|
-----------0--------------------------------------|

chorus

---------------------|
---------------------|
---------------------|
-x-x-x-x-x-x-x-x-x---|
-x-x-x-x-x-x-x-x-x---|
-x-x-x-x-x-x-x-x-x---|
the world starts shakin......

--------------------------------------------------|
--------------------------------------------------|
-4-4-4---2-----2-2-2-2-4-4-4--4-7-7--2--2-2-2-----|
-4-4-4---2-2---2-2-2-2-4-4-4--4-7-7--2--2-2-2-----|x2
-2-2-2---0-2---0-0-0-0-2-2-2--2-5-5--0--0-0-0-----|
-----------0--------------------------------------|

thats pretty much it
its a pretty easy song

peace
Comments