Collective Soul - Better Now Chords & Tabs

 

Better Now Chords & Tabs

Collective Soul Chords & Tabs

Version: 1 Type: Bass Tab 0 ratings
1 star 2 stars 3 stars 4 stars 5 stars
comments

Better Now Bass Tab

   
-----------------------------------------------------------------
Better now - Collective soul
-----------------------------------------------------------------

Tabbed By : sk8ass
e-mail: devilmax30@hotmail.com

Tuning: e a d g


intro

G|---------------------------------------------------------------------------|
D|-------2-0-----------------------------------------------------------------|
A|-2222------0-2222----0-----------------------------------------------------|
E|-------------------2---2---------------------------------------------------|

(guitar)

bass enter
(16sec.)
G|-----------------------------------------------------------------------------|
D|-2-0-------2-0---------------------2-0----------------0----------------------|
A|-----0-222-----0-222-----0---222-------0-222------0--------------------------|
E|-----------------------2---2--------------------2---2------------------------|
[ Tab from: http://www.guitartabs.cc/tabs/c/collective_soul/better_now_btab.html ]
chorus    X2
(33sec.)
G|------------------------------------------------------------------------------------|
D|-------0-4-00--0--------------0---------------0-------------------------------------|
A|-2---2-------0---4-2-0-0-4------4-2------0-0-2---0-2--------------------------------|
E|---2---------------------------------2-2--------------------------------------------|

verse1 (55sec.) X2

G|------------------------------------------------|
D|------------------2-0---------------------------|
A|0/5\0-22222222222-----0-2222222222222----0---2--|
E|---------------------------------------2---2----|


Chorus (1min-10sec) X2

(guitar outro)

bass enter
(1min.-34sec.)
G|-----444444444444444444444444444444444444....------------------|
D|---------------------------------------------------------------|
A|---------------------------------------------------------------|
E|---------------------------------------------------------------|


(guitar riff no bass)


Bass enter
(1min.-50sec.)
G|--------------------------------------------|
D|--------------------------------------------|
A|-222222222222222222222222222222222---0/5\0--|
E|--------------------------------------------|

Fade with chorus     Chorus(1min.-58sec.)X12          (little variation at the 8th time...)


| / slide up
| \ slide down
| h hammer-on
| p pull-off
| ~ vibrato
| + harmonic
| x Mute note
Comments