Coldplay - Yellow Chords & Tabs

 

Yellow Chords & Tabs

Coldplay Chords & Tabs

Version: 1 Type: Chords 2 ratings
1 star 2 stars 3 stars 4 stars 5 stars
comments

Yellow Chords

   
"Yellow"
                       Coldplay

TABBER: Unknown

 Tuning:
 Guitar 1:(Acoustic) Detune high E-string a half step down to Eb.
 Guitar 2: Detune high E-string to Eb.
 Guitar 3: Normal tuning.

         EADGBeb
B       (799800)
Bsus4   (799900)
F#      (244300)
E       (022100)
G#m     (466400)
F#m     (244201)


[INTRO]

  B  Bsus4 x2

Guitar 3:
     B                 F#                 E
e|---7------7----------11------11---------2-----2--------|-
B|---0------0----------0-------0----------0-----0--------|-
G|---9b11...11r9-------13b15...15r13------4b6...6r4------|-

     B
e|---7------7-----------7--------------------------------|-
B|---0------0-----------0--------------------------------|-
G|---9b11...11r9...-----8--------------------------------|-


[VERSE]

Guitar 1: Always just strums the chords.
Guitar 2: Strums the chords (not quite as frequently as Guitar 1).
Guitar 3: Plays whats in the tablature underneath.
[ Tab from: http://www.guitartabs.cc/tabs/c/coldplay/yellow_crd.html ]
  B                                          F#                      E
  Look at the stars;__________________________________________________
                     B
  ____________________

  B                                F#                      E
 
e|-7------------------------------2-----------------------4-----|-
B|-0------------------------------2-----------------------4-----|-
G|-8------------------------------3-----------------------4-----|-
                      B
 
e|--------------------------7-----------------------------------|-
B|--------------------------0-----------------------------------|-
G|--------------------------8-----------------------------------|-
  B                F#                             E
  
e|-----------------6------------------------------7-------------|-
B|-----------------7------------------------------9-------------|-
G|-----------------6------------------------------8-------------|-
                   B
  And it was all yellow
e|--------------------------7---7---7----7---7----7---7---------|-
B|--------------------------0-0-0-0-0-0--0-0-0-0--0-0-0-0-------|-
G|---------------------8-8--8-8-8-8-8-8--9-9-9-9--8-8-8-8-------|-


[CHORUS]

Guitar 2:  eb|--17-17-17...----------...15-15-15-15-15----------|-

Guitar 3:   B|--12-12-12...----------------...11-11-11----------|-

 
 
Comments