Coldplay - White Shadows Chords & Tabs

 

White Shadows Chords & Tabs

Coldplay Chords & Tabs

Version: 1 Type: Tab 1 rating
1 star 2 stars 3 stars 4 stars 5 stars
comments

White Shadows Tab

   
ong :WHITE SHADOWS  (Berryman,Buckland,Champion,MArtin)

Artist: Coldplay

Album : X&Y

Tabbed by Stanley    comments and info: topajatown@fastwebnet.it


   G#m           D#m            G#m            D#m  
Eb|-------------|--------------|--------------|--------------|--0----------
B |-4-----------|--7-----------|--4-----------|--7-----------|--0----------
G |-4-----------|--8-----------|--4-----------|--8-----------|--4----------
D |-6-----------|--8-----------|--6-----------|--8-----------|--6----------
A |-6-----------|--6-----------|--6-----------|--6-----------|--6----------
E |-4-----------|--------------|--4-----------|--------------|--4----------
                                                  
                                                           



Eb|-0-----------|--0-----------|--0-----------|--0-----------|--0----------
B |-7-----------|--2-----------|--5-----------|--0-----------|--7----------
G |-8-----------|--3-----------|--6-----------|--4-----------|--8----------
D |-9-----------|--4-----------|--6-----------|--6-----------|--9----------
A |-9-----------|--4-----------|--4-----------|--6-----------|--9----------
E |-7-----------|--2-----------|--------------|--4-----------|--7----------
   
  



Eb|-0-----------|--0-----------|--0-----------|--0-----------|--0----------
B |-7-----------|--7-----------|--0-----------|--7-----------|--2----------
G |-8-----------|--8-----------|--4-----------|--8-----------|--3----------
D |-8-----------|--8-----------|--6-----------|--9-----------|--4----------
A |-6-----------|--6-----------|--6-----------|--9-----------|--4----------
E |-------------|--------------|--4-----------|--7-----------|--2----------
   


[ Tab from: http://www.guitartabs.cc/tabs/c/coldplay/white_shadows_tab.html ]
Eb|-0-----------|--0-----------|--0-----------|--0-----------|--0----------
B |-5-----------|--0-----------|--7-----------|--7-----------|--7----------
G |-6-----------|--4-----------|--8-----------|--8-----------|--8----------
D |-6-----------|--6-----------|--9-----------|--8-----------|--8----------
A |-4-----------|--6-----------|--9-----------|--6-----------|--6----------
E |-------------|--4-----------|--7-----------|--------------|-------------
   


   E             C#m            E              C#m            E
Eb|-------------|--------------|--------------|--------------|-------------
B |-0-----------|--5-----------|--0-----------|--5-----------|--0----------
G |-1-----------|--6-----------|--1-----------|--6-----------|--1----------
D |-2-----------|--6-----------|--2-----------|--6-----------|--2----------
A |-2-----------|--4-----------|--2-----------|--4-----------|--2----------
E |-0-----------|--------------|--0-----------|--------------|--0----------
 









   C#m           E              C#m             G#m            E
Eb|-------------|--------------|--------------|--------------|-------------
B |-5-----------|--0-----------|--5-----------|--4-----------|--0----------
G |-6-----------|--1-----------|--6-----------|--4-----------|--1----------
D |-6-----------|--2-----------|--6-----------|--6-----------|--2----------
A |-4-----------|--2-----------|--4-----------|--6-----------|--2----------
E |-------------|--0-----------|--------------|--4-----------|--0----------



   B             D#m            G#m            E              B          
Eb|-------------|--------------|--------------|--------------|-------------
B |-7-----------|--7-----------|--4-----------|--0-----------|--7----------
G |-8-----------|--8-----------|--4-----------|--1-----------|--8----------
D |-9-----------|--8-----------|--6-----------|--2-----------|--9----------
A |-9-----------|--6-----------|--6-----------|--2-----------|--9----------
E |-7-----------|--------------|--4-----------|--0-----------|--7----------


   D#m  
Eb|-------------------|----------------------------------------------------
B |-7-----------------|--4-------------------------------------------------
G |-8-----------------|--4-------------------------------------------------
D |-8-----------------|--6-------------------------------------------------
A |-6-----------------|--6-------------------------------------------------
E |-------------------|--4-------------------------------------------------
   
Comments