Coldplay - Twisted Logic Chords & Tabs

 

Twisted Logic Chords & Tabs

Coldplay Chords & Tabs

Version: 1 Type: Bass Tab 0 ratings
1 star 2 stars 3 stars 4 stars 5 stars
comments

Twisted Logic Bass Tab

   
-----------------------------------------------------------------------------
			     TWISTED LOGIC - Coldplay
-----------------------------------------------------------------------------
Tabbed By : Victor "Mop" Wolf
e-mail: vwolf@newkirk.k12.ok.us

Tuning: Standard

 h=hammer

=======
Intro
=======

G|--------------|
D|--------------|
A|----1----1----|
E|--------------|

G|----------------------------|
D|-3-4-----3-4----------------|
A|-----2-4-----2-4-6----------|
E|----------------------------|

========
Chorus
========

G|------------h-h-------------|
D|----8-8-8-8-6-8-------------|
A|-66-------------------------|
E|----------------------------|

=====================================
[ Tab from: http://www.guitartabs.cc/tabs/c/coldplay/twisted_logic_btab.html ]
G|----------------------------|
D|-3-4-----3-4----------------|
A|-----2-4-----2-4-6----------|
E|----------------------------|

=========
Refrain
=========

G|------------------------------------------------->
D|-------------------------1-1-1-1----------------->
A|-2-2-2-2-2-2-4-4-4-4-4-4---------2-1------------->
E|-------------------------------------4-4-4-4-4-4->

>--------------------------------------------------------------|
>-------------------------1-1-1-1-1-1-1-1-1-1-1-1-1------------|
>-2-2-2-2-2-2-4-4-4-4-4-4--------------------------------------|
>--------------------------------------------------------------|

===============================
repeat chorus some more       |
-==============================

G|----------------------------|
D|-3-4-----3-4----------------|
A|-----2-4-----2-4-6----------|
E|----------------------------|

================
refrain again!
================
Comments