Coldplay - The Scientist Chords & Tabs

 

The Scientist Chords & Tabs

Coldplay Chords & Tabs

Version: 4 Type: Tab 0 ratings
1 star 2 stars 3 stars 4 stars 5 stars
comments

The Scientist Tab

This is only the top part of what the guitar plays I think. Im not sure what the chord
names are but this is how its played anyway.



Intro/Verse:

|--5-----5-----5-----5-----6-----6-----6-----6-8---5-----5-----5-----5-----|
|--6-----6-----6-----6-----6-----6-----6-----6-----6-----6-----6-----6-----|
|-----5-----5-----5-----5-----7-----7-----7-----------5-----5-----5-----5--|
|--------------------------------------------------------------------------|
|--------------------------------------------------------------------------|
|--------------------------------------------------------------------------|


|--3-----3-----3-----3-----|
|--5-----5-----5-----5-----|
|-----5-----5-----5-----5--|
|--------------------------|          Repeat these six times. 
|--------------------------|
|--------------------------|


Chorus:
[ Tab from: http://www.guitartabs.cc/tabs/c/coldplay/the_scientist_tab_ver_4.html ]
|--6-----6-----6-----6-----6-----6-----6-----6-8---5-----5-----5-----5-----|
|--6-----6-----6-----6-----6-----6-----6-----6-----6-----6-----6-----6-----|
|-----7-----7-----7-----7-----7-----7-----7-----------6-----6-----6-----6--|
|--------------------------------------------------------------------------|
|--------------------------------------------------------------------------|
|--------------------------------------------------------------------------|

|--3-----3-----3-----3-----5-----5-----5-----5-----|
|--5-----5-----5-----5-----6-----6-----6-----6-----|
|-----5-----5-----5-----5-----5-----5-----5--5-----|
|--------------------------------------------------|     Repeat these twice.
|--------------------------------------------------|
|--------------------------------------------------|


After the last chorus just play the Intro/Verse over and over till the song ends.

Thats basically the whole song. You can listen to the song to get the timing down but
its a really easy song to play. Great song.
Comments