Coldplay - Swallowed In The Sea Acoustic Chords & Tabs

 

Swallowed In The Sea Acoustic Chords & Tabs

Coldplay Chords & Tabs

Version: 1 Type: Tab 0 ratings
1 star 2 stars 3 stars 4 stars 5 stars
comments

Swallowed In The Sea Acoustic Tab

COLDPLAY - SWALLOWED IN THE SEA (ACOUSTIC)

TUNING: STANDARD (EADGBe)

VERSE1: You cut me down a tree, and brought it back to me...
e|-----------0--------------0----------0---------------0----------------|
B|-----------0--------------0----------0---------------0----------------|
G|-----------8--------------3----------1---------------8----------------|
D|-----------9--------------4----------2---------------9----------------|
A|-----------9--------------4----------2---------------9----------------|
E|-----------0--------------0----------0---------------0----------------|

VERSE1: And that's what made me see, where I was going wrong.
e|------------0------------------0----------0---------------------------|
B|------------0------------------0----------0---------------------------|
G|------------3------------------1----------8---------------------------|
D|------------4------------------2----------9---------------------------|
A|------------4------------------2----------9---------------------------|
E|------------0------------------0----------0---------------------------|

VERSE1: You put me on your shelf, and kept me for yourself...
e|-----------0---------------0---------0---------------0----------------|
B|-----------0---------------0---------0---------------0----------------|
G|-----------8---------------3---------1---------------8----------------|
D|-----------9---------------4---------2---------------9----------------|
A|-----------9---------------4---------2---------------9----------------|
E|-----------0---------------0---------0---------------0----------------|

VERSE1: I can only blame myself, you can only blame me.
e|-------------0------------0-------------0-----------------------------|
B|-------------0------------0-------------0-----------------------------|
G|-------------3------------1-------------8-----------------------------|
D|-------------4------------2-------------9-----------------------------|
A|-------------4------------2-------------9-----------------------------|
E|-------------0------------0-------------0-----------------------------|

CHORUS1: And I could write a song, a hundred miles long...
e|-----------0----------------0-------0-------------0-------------------|
B|-----------0----------------0-------0-------------0-------------------|
G|-----------1----------------8-------4-------------3-------------------|
D|-----------2----------------9-------6-------------4-------------------|
A|-----------2----------------9-------6-------------4-------------------|
E|-----------0----------------0-------0-------------0-------------------|

CHORUS1: Well, that's where I belong, and you belong with me.
e|--------------0----------------0---------0--------------0-------------|
B|--------------0----------------0---------0--------------0-------------|
G|--------------1----------------8---------4--------------3-------------|
D|--------------2----------------9---------6--------------4-------------|
A|--------------2----------------9---------6--------------4-------------|
E|--------------0----------------0---------0--------------0-------------|

CHORUS1: And I could write it down, or spread it all around...
e|-----------0-----------------0----------0-------------0---------------|
B|-----------0-----------------0----------0-------------0---------------|
G|-----------1-----------------8----------4-------------3---------------|
D|-----------2-----------------9----------6-------------4---------------|
A|-----------2-----------------9----------6-------------4---------------|
E|-----------0-----------------0----------0-------------0---------------|

CHORUS1: Get lost and then get found, or swallowed in the sea.
e|------------0------------------0---------0---------------0------------|
B|------------0------------------0---------0---------------0------------|
G|------------1------------------8---------4---------------3------------|
D|------------2------------------9---------6---------------4------------|
A|------------2------------------9---------6---------------4------------|
E|------------0------------------0---------0---------------0------------|

VERSE2: You put me on a line, and hung me out to dry...
e|-----------0------------0---------0-------------0---------------------|
B|-----------0------------0---------0-------------0---------------------|
G|-----------8------------3---------1-------------8---------------------|
D|-----------9------------4---------2-------------9---------------------|
A|-----------9------------4---------2-------------9---------------------|
E|-----------0------------0---------0-------------0---------------------|

VERSE2: And darling, that's when I, decided to go to sea.
e|------------0------------------0-----0--------------------------------|
B|------------0------------------0-----0--------------------------------|
G|------------3------------------1-----8--------------------------------|
D|------------4------------------2-----9--------------------------------|
A|------------4------------------2-----9--------------------------------|
E|------------0------------------0-----0--------------------------------|

CHORUS2: And I could write a book, the one they'll say that shook...
e|-----------0----------------0---------0---------------------0---------|
B|-----------0----------------0---------0---------------------0---------|
G|-----------1----------------8---------4---------------------3---------|
D|-----------2----------------9---------6---------------------4---------|
A|-----------2----------------9---------6---------------------4---------|
E|-----------0----------------0---------0---------------------0---------|

CHORUS2: ...the world, and then it took, it took you back from me.
e|---------------0------------------0---------0----------------0--------|
B|---------------0------------------0---------0----------------0--------|
G|---------------1------------------8---------4----------------3--------|
D|---------------2------------------9---------6----------------4--------|
A|---------------2------------------9---------6----------------4--------|
E|---------------0------------------0---------0----------------0--------|

CHORUS2: And I could write it down, or spread it all around...
e|-----------0-----------------0----------0-------------0---------------|
B|-----------0-----------------0----------0-------------0---------------|
G|-----------1-----------------8----------4-------------3---------------|
D|-----------2-----------------9----------6-------------4---------------|
A|-----------2-----------------9----------6-------------4---------------|
E|-----------0-----------------0----------0-------------0---------------|

CHORUS2: Get lost and then get found, and you'll come back to me...
e|------------0------------------0---------0---------------0------------|
B|------------0------------------0---------0---------------0------------|
G|------------1------------------8---------4---------------3------------|
D|------------2------------------9---------6---------------4------------|
A|------------2------------------9---------6---------------4------------|
E|------------0------------------0---------0---------------0------------|
[ Tab from: http://www.guitartabs.cc/tabs/c/coldplay/swallowed_in_the_sea_acoustic_tab.html ]
CHORUS2: ...not swallowed in the sea.
e|----------------0---------------0-------------------------------------|
B|----------------0---------------0-------------------------------------|
G|----------------1---------------8-------------------------------------|
D|----------------2---------------9-------------------------------------|
A|----------------2---------------9-------------------------------------|
E|----------------0---------------0-------------------------------------|

BRIDGE: [no lyrics]
e|--------------0--------------0--------------0--------------0----------|
B|--------------0--------------0--------------0--------------0----------|
G|--------------8--------------4--------------8--------------13---------|
D|--------------9--------------6--------------9--------------14---------|
A|--------------9--------------6--------------9--------------14---------|
E|--------------0--------------0--------------0--------------12---------|

BRIDGE: [no lyrics]
e|--------------0--------------0--------------0--------------0----------|
B|--------------0--------------0--------------0--------------0----------|
G|--------------8--------------4--------------8--------------13---------|
D|--------------9--------------6--------------9--------------14---------|
A|--------------9--------------6--------------9--------------14---------|
E|--------------0--------------0--------------0--------------12---------|

BRIDGE: Ooh...
e|--------------0--------------0--------------0--------------0----------|
B|--------------0--------------0--------------0--------------0----------|
G|--------------8--------------4--------------8--------------13---------|
D|--------------9--------------6--------------9--------------14---------|
A|--------------9--------------6--------------9--------------14---------|
E|--------------0--------------0--------------0--------------12---------|

BRIDGE: Ooh...
e|--------------0--------------0--------------0--------------0----------|
B|--------------0--------------0--------------0--------------0----------|
G|--------------8--------------4--------------8--------------13---------|
D|--------------9--------------6--------------9--------------14---------|
A|--------------9--------------6--------------9--------------14---------|
E|--------------0--------------0--------------0--------------12---------|

CHORUS3: And I could write a song, a hundred miles long...
e|-----------0----------------0-------0-------------0-------------------|
B|-----------0----------------0-------0-------------0-------------------|
G|-----------1----------------8-------4-------------3-------------------|
D|-----------2----------------9-------6-------------4-------------------|
A|-----------2----------------9-------6-------------4-------------------|
E|-----------0----------------0-------0-------------0-------------------|

CHORUS3: Well, that's where I belong, and you belong with me.
e|--------------0----------------0---------0--------------0-------------|
B|--------------0----------------0---------0--------------0-------------|
G|--------------1----------------8---------4--------------3-------------|
D|--------------2----------------9---------6--------------4-------------|
A|--------------2----------------9---------6--------------4-------------|
E|--------------0----------------0---------0--------------0-------------|

CHORUS3: The streets you're walking on, a thousand houses long...
e|-------------0---------------------0------0--------------0------------|
B|-------------0---------------------0------0--------------0------------|
G|-------------1---------------------8------4--------------3------------|
D|-------------2---------------------9------6--------------4------------|
A|-------------2---------------------9------6--------------4------------|
E|-------------0---------------------0------0--------------0------------|

CHORUS3: Well, that's where I belong, and you belong with me.
e|--------------0----------------0---------0--------------0-------------|
B|--------------0----------------0---------0--------------0-------------|
G|--------------1----------------8---------4--------------3-------------|
D|--------------2----------------9---------6--------------4-------------|
A|--------------2----------------9---------6--------------4-------------|
E|--------------0----------------0---------0--------------0-------------|

CHORUS3: Oh what good is it to live, with nothing left to give...
e|----------------0-------------0----------0---------------0------------|
B|----------------0-------------0----------0---------------0------------|
G|----------------1-------------8----------4---------------3------------|
D|----------------2-------------9----------6---------------4------------|
A|----------------2-------------9----------6---------------4------------|
E|----------------0-------------0----------0---------------0------------|

CHORUS3: Forget but not forgive, not loving all you see.
e|-----------0--------------0---------0--------------0------------------|
B|-----------0--------------0---------0--------------0------------------|
G|-----------1--------------8---------4--------------3------------------|
D|-----------2--------------9---------6--------------4------------------|
A|-----------2--------------9---------6--------------4------------------|
E|-----------0--------------0---------0--------------0------------------|

CHORUS3: Oh the streets you're walking on, a thousand houses long...
e|----------------0---------------------0------0--------------0---------|
B|----------------0---------------------0------0--------------0---------|
G|----------------1---------------------8------4--------------3---------|
D|----------------2---------------------9------6--------------4---------|
A|----------------2---------------------9------6--------------4---------|
E|----------------0---------------------0------0--------------0---------|

CHORUS3: Well, that's where I belong, and you belong with me.
e|--------------0----------------0---------0--------------0-------------|
B|--------------0----------------0---------0--------------0-------------|
G|--------------1----------------8---------4--------------3-------------|
D|--------------2----------------9---------6--------------4-------------|
A|--------------2----------------9---------6--------------4-------------|
E|--------------0----------------0---------0--------------0-------------|

OUTRO: Not swallowed in the sea, you belong with me...
e|-----------0---------------0----0--------------0----------------------|
B|-----------0---------------0----0--------------0----------------------|
G|-----------1---------------8----4--------------3----------------------|
D|-----------2---------------9----6--------------4----------------------|
A|-----------2---------------9----6--------------4----------------------|
E|-----------0---------------0----0--------------0----------------------|

OUTRO: Not swallowed in the sea, yeah you belong with me...
e|-----------0---------------0---------0--------------0-----------------|
B|-----------0---------------0---------0--------------0-----------------|
G|-----------1---------------8---------4--------------3-----------------|
D|-----------2---------------9---------6--------------4-----------------|
A|-----------2---------------9---------6--------------4-----------------|
E|-----------0---------------0---------0--------------0-----------------|

OUTRO: Not swallowed in the sea.
e|-----------0---------------0------------------------------------------|
B|-----------0---------------0------------------------------------------|
G|-----------1---------------8------------------------------------------|
D|-----------2---------------9------------------------------------------|
A|-----------2---------------9------------------------------------------|
E|-----------0---------------0------------------------------------------|
Comments