Coldplay - Square One Chords & Tabs

 

Square One Chords & Tabs

Coldplay Chords & Tabs

Version: 1 Type: Bass Tab

Square One Bass Tab

   
SQUARE ONE
Coldplay

Taken from the EMI/Parlophone album X & Y (2005)

Transcribed by: Damian Pamminger (TwitcheD_85@hotmail.com)

Standard tuning: E A D G

Pause

| ----------------------------------------------------------------------------------|
| ----------------------------------------------------------------------------------|
|------------------6-6-6-6-6-6-6-6-/-11-11-11-11-11-11-11-11-11-11-11-11-11-11------|
|-8-8-8-8-8-8-8-8-------------------------------------------------------------------|

| ----------------------------------------------------------------------------|
| ----------------------------------------------------------------------------|
|-11-11------------------ 6-6-6-6-6-6-6-6-8-8-8-8-8-8-8-8-8-8-8-8-8-8-8-8-----|
| -------8-8-8-8-8-8-8-8------------------------------------------------------|

|----------------------------------------------------------------------------------|
|----------------------------------------------------------------------------------|
|------------------6-6-6-6-6-6-6-6-/-11-11-11-11-11-11-11-11-11-11-11-11-11-11-----|
|-8-8-8-8-8-8-8-8------------------------------------------------------------------|

| ------------------------------------------------------------------------------|
| ------------------------------------------------------------------------------|
|-13-13-13-13-13-13-13-13-13-13-13-13-13-13-13-13-11-11-11-11-11-11-11-11-------|
| ------------------------------------------------------------------------------|

|----------------------------------------------------------------------------------|
|----------------------------------------------------------------------------------|
|-11-11-11-11-11-11-11-11\\-8-8-8-8-8-8-8-8-8-8-8-8-8-8-8-8-8-8-8-8-8-8-8-8-8------|
|----------------------------------------------------------------------------------|

|--------------------------------------------------------------------------------|
|-------------------------13---------13----------13---------13----------13-------|
|-8-8-8-8-8-8-8-/--13-13----15---15-------15-15----15---15-------13-13----15-----|
|--------------------------------------------------------------------------------|

|------------------------------- |-------------------------------------------------|
|-----13----------13---------13-|--------13----------13-----------17---------17----|
|--15-------15-15----15---15--- |--------------------------------------------------|
| -------------------------------|-11-11-----11---11---------15-15----15---15------|

|-------------------------------------- |-------------|
|-------10-------10--------10-------10-|--REPEAT------|
|-------------------------------------- |-two-more----|
|---8-8----8---8-------8-8----8---8----|---times------|

| -------------------------------------------------------------------------------|
|--------13----------13-----------15----------15--------10-------10--------10----|
|--------------------------------------------------------------------------------|
|-11-11-----11---11--------13-13-----13---13-------8-8----8---8-------8-8--------|

|----------|--------| -----------------------------------------------|
|-------10-|-REPEAT | -------13---------13---------13---------13-----|
|----------|--------| -13-13---15---15----15---15----15---15---------|
|-8---8----|--------|------------------------------------------------|
[ Tab from: http://www.guitartabs.cc/tabs/c/coldplay/square_one_btab.html ]
|-------------------------------------------------------------------------------|
|-------------------------------------------------------------------------------|
|------------------6-6-6-6-6-6-6-6-/-11-11-11-11-11-11-11-11-11-11-11-11-11-----|
|-8-8-8-8-8-8-8-8---------------------------------------------------------------|

|-------------------------------------------------------------------------------|
|-------------------------------------------------------------------------------|
|-11-11-11------------------6-6-6-6-6-6-6-6-8-8-8-8-8-8-8-8-8-8-8-8-8-8-8-8-----|
|-----------8-8-8-8-8-8-8-8-----------------------------------------------------|

|-------------------------------------------------------------------------------|
|-------------------------------------------------------------------------------|
|------------------6-6-6-6-6-6-6-6-/-11-11-11-11-11-11-11-11-11-11-11-11-11-----|
|-8-8-8-8-8-8-8-8---------------------------------------------------------------|

| ---------------------------------------------------------------------------------|
| ---------------------------------------------------------------------------------|
|-11-11-11-13-13-13-13-13-13-13-13-13-13-13-13-13-13-13-13-11-11-11-11-11-11-------|
| ---------------------------------------------------------------------------------|

|----------------------------------------------------------------------------------|
|----------------------------------------------------------------------------------|
|-11-11-11-11-11-11-11-11-11-11-\-8-8-8-8-8-8-8-8-8-8-8-8-8-8-8-8-8-8-8-8-8-8------|
|----------------------------------------------------------------------------------|

|--------------------------------------------------------------------------------|
|--------------------------------------------------------------------------------|
|-8-8-8-8-8-8-8-8-8-8-8------------------6-6-6-6-6-6-6-6-/-11-11-11-11-11-11-----|
|------------------------8-8-8-8-8-8-8-8-----------------------------------------|

|--------------------------------------------------------------------------------|
|--------------------------------------------------------------------------------|
|-11-11-11-11-11-11-11-11-11-11------------------6-6-6-6-6-6-6-6-8-8-8-8-8-8-----|
| --------------------------------8-8-8-8-8-8-8-8--------------------------------|

|----------------------------------------------------------------------------------|
|----------------------------------------------------------------------------------|
|-8-8-8-8-8-8-8-8-8-8------------------6-6-6-6-6-6-6-6-----------------------------|
|----------------------8-8-8-8-8-8-8-8------------------4-4-4-4-4-4-4-4-4-4-4-4----|

| -----------------------------------------------------------------------------|
| -----------------------------------------------------------------------------|
| -----------------------------------------------------------------------------|
|-4-4-4-4-6-6-6-6-6-6-6-6-6-6-6-6-6-6-6-6-4-4-4-4-4-4-4-4-4-4-4-4-4-4-4-4------|

|----------------------------------------------------------------------------------|
|----------------------------------------------------------------------------------|
|----------------------------------------------------------------------------------|
|-1-1-1-1-1-1-1-1-1-1-1-1-1-1-1-1-4-4-4-4-4-4-4-4-4-4-4-4-4-4-4-4-1-1-1-1-1-1------|

|------------------------------------------------------------------------------|
|------------------------------------------------------------------------------|
| -----------------------8-8-8-8-8-8-8-8-8-8-8-8-8-8-8-8-----------------------|
|-1-1-1-1-1-1-1-1-1-1-/--------------------------------------------------------|

Pause until end