Coldplay - Spies Chords & Tabs

 

Spies Chords & Tabs

Coldplay Chords & Tabs

Version: 3 Type: Tab 0 ratings
1 star 2 stars 3 stars 4 stars 5 stars
comments

Spies Tab

-------------------------------------------------------------------------------
			     Spies - Coldplay
-------------------------------------------------------------------------------
Tabbed by: Matthew Mehus
Email:  Matthew.Mehus@colorado.edu

There aren't very many tries at this song, so I thought I would give it a go.
One note:  The first guitar that plays the ambient sounds uses an EBow.  It's not
necessary, but will sound a whole lot better.  The number of times each chord is played
isn't written out, but it's not too hard to hear it in the song.  Let me know if you see
any mistakes/have corrections!

Tuning: Standard
[ Tab from: http://www.guitartabs.cc/tabs/c/coldplay/spies_tab_ver_3.html ]
Intro
e|--9b11b9(EBow repeats)-----------------------------------------------------|
B|--------------------------5------------------------------------------------|
G|--------------------------6------------------------------------------------|
D|--------------------------6------------------------------------------------|
A|--------------------------4------------------------------------------------|
E|---------------------------------------------------------------------------|
Verse
e|---------------------------------------------------------------------------|
B|-5---5--5--5--4--2--5--5--4------------------------------------------------|
G|-6---6--6--6--4--2--6--6--4------------------------------------------------|
D|-6---6--6--6--6--4--6--6--6------------------------------------------------|
A|-4---x--x--x--6--4--x--x--6------------------------------------------------|
E|-----5--4--5--4--2--4--5--4------------------------------------------------|
Chorus ("Spies came out of every corner..."
e|---------------------------------------------------------------------------|
B|--2--4--5--4--2--4--5--4---------------------------------------------------|
G|--2--4--6--4--2--4--6--4---------------------------------------------------|
D|--4--6--6--6--4--6--6--6---------------------------------------------------|
A|--4--6--x--6--4--6--x--6---------------------------------------------------|
E|--2--4--5--4--2--4--5--4---------------------------------------------------|
Post-Chorus Electric
e|-----11---9---------------11-12--14-------11---9---------------------------|
B|-------------------------------------------------------------9-------------|
G|---9----9---9----9------9---------------9----9---9----9----9------11-9----9|
D|11------------11-----11--------------11------------11---11-----11------11--|
A|---------------------------------------------------------------------------|
E|---------------------------------------------------------------------------|
Interlude (And if we are fine here...if we don't hide here, they're going to find...)
Just electric part, each note is picked as 32nd notes.  This part is somewhat hard to
hear, so the number after each note is how many beats it takes.
e|---------------------------------------------------------------------------|
B|-------------------12-(2)----------------------------9(2)-10(2)-9(2)-------|
G|6-(10 beats)-8(2)---------8(2)--6(2)-8(1)-9(1)-11(2)-----------------------|
D|---------------------------------------------------------------------------|
A|---------------------------------------------------------------------------|
E|---------------------------------------------------------------------------|

e|---------------------------------------------------------------------------|
B|---------------------------------------------------------------------------|
G|-6(2)-5(2)-----------------------------------------------------------------|
D|---------------------------------------------------------------------------|
A|---------------------------------------------------------------------------|
E|---------------------------------------------------------------------------|
Comments