Coldplay - Spies Chords & Tabs

 

Spies Chords & Tabs

Coldplay Chords & Tabs

Version: 2 Type: Tab 0 ratings
1 star 2 stars 3 stars 4 stars 5 stars
comments

Spies Tab

   
:::::::::::::::::SPIES_COLDPLAY_PARACHUTES:::::::::::::::::::

Cancion :"Spies"
Album   :Parachutes
Autor   :Coldplay
Tableodo:Astrototote@hotmail.com
Best song for me!!!
::::::::::::::::::::::::::::::::::::::::::::::::::::
EMILIO CHILE;
"Este tema de coldplay es  mi favorito ...
para mi es una de las canciones mas buenas 
que es he escuchado en mi vida y de coldplay es 
casi la mejor...por eso elavore este tab.. 
tienes que pensar en algun momento, la musica 
transmite emociones y esta cancion es fabuloza para mi..
el tema esta en ;"dom o Cm" en el comienzo..

Aquí les doy dos versiones una versionII(2) 
como la toca chris martin(hay que bajar las cuerdas)
y otra versionI(1)que se puede tocar sin la nesecidad 
de bajar las cuerdas
:::::::::::::::::::::::::::::::::::::::::::::::::::::

Esta es la versionI(1) +[sin la nesecidad de bajar las cuerdas]+
  "Notas para cada cuerda"
+[1(e)2(b)3(g)4(d)5(a)6(e)]*

INTRO(guitarra Electrica)

+[~]+=bibrato        *
    00:01   00:06  00:10
       /\     /\    /\
e-----~9~~~~~~11~~~~9--------------|\
b------x---------------------------| \
g------x---------------------------|  \ (X3)
d------x---------------------------|  /
a------x---------------------------| /
E------(9)~~~(11)~~~(9)------------|/
       /\     /\     /\
    +[()Estas cuerda se presionan, pero no se toca]+
*[en el minuto 00:24 la guitarra desaparece]+


xxxxxxxxxGuitarra Electricaxxxxxxxxxxxxxxxxxxxxxxxxxxxxxxx
verso 2

e----------------------------------|
b----------------------------------|
g----------------------------------|
d--~~4~~~~6~~~~~7~~~~~6~~~---------|
a----------------------------------|
E----------------------------------|
   		     they're all spieeees..
e---------~2~---~2~---~4~----------|
b---~2~----------------------------|
g---------------~2~---~4~----------|
d---~4~ --~2~----------------------|
a----------------------------------|
E----------------------------------|
xxxxxxxxxxxxxxxxxxxxxxxxxxxxxxxxxxxxxxxxxxxxxxxxxxxxxxxxxxx
coro(X2)

e--------11----11-9------|------11---11--12---12--14--|
b-------------------5----|----------------------------|
g------------------------|-9-9-----9-------9----------|
d--11-11----11-----------|----------------------------|
a------------------------|----------------------------|
E------------------------|----------------------------|

e------11-----11---9---9---|--------------------------|
b--------------------------|------9-----9-------------|
g------------------------9-|--------------------------|
d--9-9-----9----------9----|--------------11--11--9---|
a--------------------------|--------------------------|
E--------------------------|-11-11--11------11--------|
xxxxxxxxxxxxxxxxxxxxxxxxxxxxxxxxxxxxxxxxxxxxxxxxxxxxxxxxxxx
verso 1
 I awake to see that no one is free..
e---------9-----7--------------------|
b------10-----9--------10-----9------|
g---11------9--------9------8--------|
d-----------------11------9----------|
a------------------------------------|
E------------------------------------|
			      they're all spieeees..
e---------9-----7--------------------|
b------10-----9--------10------12----|
g---11------9--------9------11-------|
d-----------------11-----13----------|
a------------------------------------|
E------------------------------------|
xxxxxxxxxxxxxxxxxxxxxxxxxxxxxxxxxxxxxxxxxxxxxxxxxxxxxxxxxxx
coro(X2)

e--------11----11-9------|------11---11--12---12--14--|
b-------------------5----|----------------------------|
g------------------------|-9-9-----9-------9----------|
d--11-11----11-----------|----------------------------|
a------------------------|----------------------------|
E------------------------|----------------------------|

e------11-----11---9---9---|--------------------------|
b--------------------------|------9-----9-------------|
g------------------------9-|--------------------------|
d--9-9-----9----------9----|--------------11--11--9---|
a--------------------------|--------------------------|
E--------------------------|-11-11--11------11--------|
xxxxxxxxxxxxxxxxxxxxxxxxxxxxxxxxxxxxxxxxxxxxxxxxxxxxxxxxxxx
verso 3(punteo rapido)   And if we don't buy here,.......

e---------------------------------------------------------|
b-14-14-14-14-14-14-14-14-14-14-14-14-14-14-14-14-14-14-14|
g---------------------------------------------------------|
d---------------------------------------------------------|
a---------------------------------------------------------|
E---------------------------------------------------------|

e-------------------------19-19-19-19-19-19---------------|
b-16-16-16-16-16-16-16-16------------------16-16-16-16-16-|
g---------------------------------------------------------|
d---------------------------------------------------------|
a---------------------------------------------------------|
E---------------------------------------------------------|

e--------------------------------------2-2--2-2-2-4-4-4-4-|
b-2-2-2-2-2-2-2-2-4-4-4-4-4-4-4-5-5-5---------------------|
g---------------------------------------------------------|
d---------------------------------------------------------|
a---------------------------------------------------------|
E---------------------------------------------------------|
[ Tab from: http://www.guitartabs.cc/tabs/c/coldplay/spies_tab_ver_2.html ]
e---5-5-5-5-5-5-5-4-4-4-4-4-4-----------------------------|
b-----------------------------2-2-2-2-2-2-1-1-1-1---------|
g---------------------------------------------------------|
d---------------------------------------------------------|
a---------------------------------------------------------|
E---------------------------------------------------------|
xxxxxxxxxxxxxxxxxxxxxxxxxxxxxxxxxxxxxxxxxxxxxxxxxxxxxxxxxx
verso 4
...But the spies hide out in every corner,
But you can't touch them though,
Cos they're all spiesss, 

e~6-~~~~~~5-~~~~~~~~~~~~4-~~~~~~~~9-~~~~~~~~11/-----------|
b---------------------------------------------------------|
g---------------------------------------------------------|
d---------------------------------------------------------|
a---------------------------------------------------------|
E---------------------------------------------------------|

xxxxxxxxxxxxxxxxxguitarrra acusticaxxxxxxxxxxxxxxxxxxxxxxxx

(aquí}*[00:10] Entra Guitarra acustica)
      intro    
	 Cm		  
e-----4-4-4-4-4-4-4-4..|
b-----5-5-5-5-5-5-5-5..|
g-----6-6-6-6-6-6-6-6..|
d-----6-6-6-6-6-6-6-6..|
a-----4-4-4-4-4-4-4-4..|
E-----x-x-x-x-x-x-x-x..|
xxxxxxxxxxxxxxxxxxxxxxxxxxxxxxxxxxxxxx      
      verso 1
+[comienza a cantar]+ 
   F#m+	     e
e---2..--|---0..--|
b---2..--|---0..--|
g---2..--|---1..--|
d---4..--|---2..--|
a---4..--|---2..--|
E---2..--|---0..--|
    a        G#m      
e---5..--|---4..--|
b---5..--|---4..--|
g---6..--|---4..--|
d---7..--|---6..--|
a---7..--|---6..--|
E---5..--|---4..--|
xxxxxxxxxxxxxxxxxxxxxxxxxxxxxxxxxxxxx
     verso2
 
   F#m+	     Cm
e---2..--|---4..--|
b---2..--|---5..--|
g---2..--|---6..--|
d---4..--|---6..--|
a---4..--|---4..--|
E---2..--|---x..--|
    a       G#m           
e---5..--|---4..--|
b---5..--|---4..--|
g---6..--|---4..--|
d---7..--|---6..--|
a---7..--|---6..--|
E---5..--|---4..--|
   F#m+	     Cm
e---2..--|---4..--|
b---2..--|---5..--|
g---2..--|---6..--|
d---4..--|---6..--|
a---4..--|---4..--|
E---2..--|---x..--|
    a        b      
e---5..--|---7..--|
b---5..--|---7..--|
g---6..--|---8..--|
d---7..--|---9..--|
a---7..--|---9..--|
E---5..--|---7..--|     

xxxxxxxxxxxxxxxxxxxxxxxxxxxxxxxxxxx
    coro(X2)
they're all spieeeesssssssssssssss.  
    Cm        a
e---4..--|---5..--|
b---5..--|---5..--|
g---6..--|---6..--|
d---6..--|---7..--|
a---4..--|---7..--|
E---x..--|---5..--|
    G#m     F#m+ 
e---4..--|---2..--|
b---4..--|---2..--|
g---4..--|---2..--|
d---6..--|---4..--|
a---6..--|---4..--|
E---4..--|---2..--|
 they're all spieeeesssssssssssssss.
    G#m       b
e---4..--|---7..--|
b---4..--|---9..--|
g---4..--|---9..--|
d---6..--|---8..--|
a---6..--|---7..--|
E---4..--|---7..--|
xxxxxxxxxxxxxxxxxxxxxxxxxxxxxxxxxxx
    verso 3
    a        b
e---5..--|---7..--|
b---5..--|---9..--|
g---6..--|---9..--|
d---7..--|---8..--|
a---7..--|---7..--|
E---5..--|---7..--|

  F#m+	     G#m
e---2..--|---4..--|
b---2..--|---4..--|
g---2..--|---4..--|
d---4..--|---6..--|
a---4..--|---6..--|
E---2..--|---4..--|

   a        G#m
e---5..--|---4..--|
b---5..--|---4..--|
g---6..--|---4..--|
d---7..--|---6..--|
a---7..--|---6..--|
E---5..--|---4..--|

   F#m+	     e
e---2..--|---0..--|
b---2..--|---0..--|
g---2..--|---1..--|
d---4..--|---2..--|
a---4..--|---2..--|
E---2..--|---0..--|
    a        G#m      
e---5..--|---4..--|
b---5..--|---4..--|
g---6..--|---4..--|
d---7..--|---6..--|
a---7..--|---6..--|
E---5..--|---4..--|
 
xxxxxxxxxxxxxxxxxxxxxxxxxxxxxxxxxx
verso 4

   a        G#m      
e---5..--|---4..--|
b---5..--|---4..--|
g---6..--|---4..--|
d---7..--|---6..--|
a---7..--|---6..--|
E---5..--|---4..--|

  a           F#
e---5..--|---2..--|
b---5..--|---2..--|
g---6..--|---3..--|
d---7..--|---4..--|
a---7..--|---4..--|
E---5..--|---2..--|

  F#m+	     e
e---2..--|---0..--|
b---2..--|---0..--|
g---2..--|---1..--|
d---4..--|---2..--|
a---4..--|---2..--|
E---2..--|---0..--|
    a          G#m      
e---5..-5---|---4..--|
b---5..-7---|---4..--|
g---6..-6---|---4..--|
d---7..-x---|---6..--|
a---7..-7---|---6..--|
E---5..-5---|---4..--|
xxxxxxxxxxxxxxxxxxxxxxxxxxxxxxxxxxx
Spies

intro

verso 1
I awake to find no peace of mind,
I said, how do you live as a fugitive?x

verso 1
Down here where I cannot see so clear.

I said, what do I know?
Show me the right way to go,

verso 2
And the spies came out of the water,
But you're feeling so bad cos you know,
But the spies hide out in every corner,
But you can't touch them though,
Cos they're all spiesss, 

Coro
they're all spieeeesssssssssssssss.

verso 1
I awake to see that no one is free,
We're all fugitives,
Look at the way with it.

verso 1
Down here, I cannot sleep from fear no.

I said, which way do I turn?
I forget everything I learn,

verso 2
But the spies came out of the water,
But you're feeling so bad cos you know,
But the spies hide out in every corner,
But you can't touch them though,
Cos they're all spiessss, 

coro
they're all spieeeesssssssssssss.

verso 3
And if we don't buy here,
They're going to find us,
If we don't buy now,
They're going to catch us where we see,
And if we don't hide here,
They're going to find us.

coro
they're all spieeeesssssssssssss.

verso 4
And the spies came out of the water,
But you're feeling so God cos you know,
But the spies hide out in every corner,
But you can't touch them though,
Cos they're all spiesss, 

coro
they're all spieeeesssssssssssss.
they're all spieeeesssssssssssss.
they're all spieeeesssssssssssss.
they're all spieeeesssssssssssss.
*[en el ultimo verso del coro ,al final, tocas esto Cm (Dom)]+
they're all spieeeesssssssssssss.
				Cm
		e---------------"9"----------------|
		b----------------------------------|
		g----------------------------------|
		d----------------------------------|-----(fin de la cancion)
		a----------------------------------|
		E----------------------------------|
Comments