Coldplay - Speed Of Sound Chords & Tabs

 

Speed Of Sound Chords & Tabs

Coldplay Chords & Tabs

Version: 1 Type: Bass Tab 0 ratings
1 star 2 stars 3 stars 4 stars 5 stars
comments

Speed Of Sound Bass Tab

   
Standard tunning


G |-------------------------------------|
D |-------------------------------------|
A |---------7-777-5-7-7777-5-7-5555-----| 4X
E |-555-3-5------------------------33\5-|

G |-------------------------------------|
D |-------------------------------------|
A |-------------------------------------| 2X
E |-/33333333-55555555-7777777777777777-|

G |-----------------------------|
D |-----------------------------|
A |-10(8X)---------------10(8X)-| 2X
E |--------777777-10(8X)--------|

G |------------------------------|
D |---------10-------10----10-8--|
A |--------7--7-10-7---7--7--7---| 1X I am no sure about this part
E |-5~------------------10-------|
[ Tab from: http://www.guitartabs.cc/tabs/c/coldplay/speed_of_sound_btab.html ]
G |-------------------------------------|
D |-------------------------------------|
A |-------------------------------------| 2X
E |-/33333333-55555555-7777777777777777-|

G |-----------------------------|
D |-----------------------------|
A |-10(8X)---------------10(8X)-| 2X
E |--------777777-10(8X)--------|

G |----------------|
D |----------------|
A |--------10(8X)--| 1X
E |-10(8X)---------|

G |-------------------------------------|
D |-------------------------------------|
A |-------------------------------------| 2X
E |-/33333333-55555555-7777777777777777-|

G |-----------------------------|
D |-----------------------------|
A |-10(8X)---------------10(8X)-| 2X
E |--------777777-10(8X)--------|

G |----------------|
D |----------------|
A |--------10(8X)--| 1X
E |-10(8X)---------|

EnJOY!!!
Rate me

~let ring
/slide up
\slide down
Comments