Coldplay - Shiver Chords & Tabs

 

Shiver Chords & Tabs

Coldplay Chords & Tabs

Version: 4 Type: Tab 0 ratings
1 star 2 stars 3 stars 4 stars 5 stars
comments

Shiver Tab

   
Tuning  E A D G B E

/=slide up
\=slide down
!=whammy bar doop

Intro
Gtr. 1
|------------------------------|
|------------------------------|
|-9------9-9-9-9-9-9-9-9-11-11-|
|-9----------------------------|
|-7----------------------------|
|------------------------------|
Gtr. 2
|-12-----12-----12-----12------|
|---14-16--14-16--14-16--14-16-|
|------------------------------|
|------------------------------|
|------------------------------|
|------------------------------|

Main Riff
(w/ overdrive)
|----------------------------------------------------------------------|
|----------------------------------------------------------------------|
|-6/8--8--8-8\6--6-6/9--9--9-9\6--6-6/8--8--8-8\6--6\1--1-1--1-1--4--4-|
|----------------------------------------------------------------------|
|----------------------------------------------------------------------|
|----------------------------------------------------------------------|x2 
[ Tab from: http://www.guitartabs.cc/tabs/c/coldplay/shiver_tab_ver_4.html ]
|----------------------------------------------------------------------|
|----------------------------------------------------------------------|
|-6/8--8--8-8\6--6-6/9--9--9-9-9-9-9/14-14-14-14-14-16--16-13-13-13-13-|
|----------------------------------------------------------------------|
|----------------------------------------------------------------------|
|----------------------------------------------------------------------|

|-------------|
|-------------|
|6---/8--\4---|
|-------------|
|-------------|
|-------------|

Verse

So I look in your direction, but you pay me no attention do you?

|-----14-12----11-------9-----|
|---12-----12----12--12--12---|
|-11---------11----11------11-|
|-----------------------------|
|-----------------------------|
|-----------------------------|

Pre-Chorus

|----------------------------------|
|----------------------------------|
|----------------------------------|
|-14-14-14-14-14-14-14\13-13\11-11-|
|----------------------------------|
|----------------------------------| x6

|----------------------------------------|
|---0--0----0--0-----0---0------0---0----|
|-4--4--4/8--8---8/11--11--11/14--14--14-|
|----------------------------------------|
|----------------------------------------|
|----------------------------------------|

Chorus

|------------------|  |------------------|
|-----4--------4---|  |-----4--------4---|
|---4--4-----4--4--|  |---4--4-----4--4--|
|-6-----6--5-----5-|  |-4-----4--2-----4-|
|------------------|  |------------------|
|------------------|x3|------------------|

|------------------------------------|
|-----4--------4--------4----4!------|
|---4--4-----4--4-----4------4!------|
|-6-----6--5-----5--4--------2!------|
|------------------------------------|
|------------------------------------|
Comments