Coldplay - Shiver Chords & Tabs

 

Shiver Chords & Tabs

Coldplay Chords & Tabs

Version: 1 Type: Tab 1 rating
1 star 2 stars 3 stars 4 stars 5 stars
comments

Shiver Tab

   
COLDPLAY : Shiver
tabbed by sam close - themeul@btinternet.com

okay, this took me many hours to work out seeing as i couldnt find my capo,
it sounds okay if u play along to the song, i dont think there are any mistakes
but if u find any dont hesitate to let me know.

G1 = electric lead guitar *capo 9th fret*
G2 = acoustic rhythm guitar *capo 9th fret* 


INTRO 

G1
e---0-2-3-(x3)---0-2-3--- 

G2
e---3------------2-------
B---3------------3-------
G---0------------2-------
D---0------------0-------
A---x--------------------
E---3--------------------


G1
e-------------------------------------------------------------------
B-------------------------------------------------------------------
G-------------------------------------------------------------------
D---2/4-4-4-4/2-2-2-2/5-5-5-5/2-2-2-2/4-4-4-4/2-2-2----------------- (x2)
A---------------------------------------------------2-2-2-2/5-5-5---
E-------------------------------------------------------------------

G1
e--------------------------------------------------
B--------------------------------------------------
G-----------------------------5-5/7/4--------------
D---2/4-4-4-4/2-2-2-2/5-5-5-5-----------2-2/4-0----
A--------------------------------------------------
E--------------------------------------------------



VERSE

"So I look in your direction..."
G1
e-----------------5---3----2-----0-----    ]
B---0------------0-----0----0-----0----    ]
G---4-----------2---2---2----2-2---0---    ]
D---5----------------------------------    ]
A--------------------------------------    ]
E--------------------------------------    ]
                                          (x2)
G2                                         ]
e---3-----------2----------------------    ]
B---3-----------3----------------------    ]
G---0-----------2----------------------    ]
D---0-----------0----------------------    ]
A---x----------------------------------    ]
E---3----------------------------------    ]



"From the moment I wake..."
G1
e-------------------------------------------------------------------------------------
B-------------------------------------------------------------------------------------
G-------------------------------------------------------------------------------------
D-----5-5-5-5-5-5-4-4-4-2-2------5-5-5-5-5-5-4-4-4-2-2------5-5-5-5-5-5-4-4-4-2-2-----
A---2--------------------------2--------------------------4---------------------------
E-------------------------------------------------------------------------------------
[ Tab from: http://www.guitartabs.cc/tabs/c/coldplay/shiver_tab.html ]
G1
e-------------------------------------------------------------------------------------
B-------------------------------------------------------------------------------------
G-----------------------2-2-----------------------------------------------------------
D-----5-5-5-5-5-5-4-4-4-----------5-5-5-5-5-5-4-4-4-2-2------5-5-5-5-5-5-4-4-4-2-2----
A---4---------------------------2--------------------------2--------------------------
E-------------------------------------------------------------------------------------


"Just to see if you care.."
G1
e--------------------------------------------------
B--------------------------------------------------
G----------------------------2-2-2-2-2-2/5-5-5-5---
D---0-0-0-0-0-0-0-0-0-0-0-0--0-0-0-0-0-0-0-0-0-0---
A---5-5-5-5-5-5/9-9-9-9-9-9------------------------
E--------------------------------------------------


"Did you want me to change..."
G1
e------------------------------
B------------------------------
G------------------------------
D-----0---4p0------0---4p0----- (x3) 
A---2---2-----2--1---1----1----
E------------------------------


e--------------------------------------------------------------------------
B--------------------------------------------------------------------------
G--------------------------------------------------------------------------
D----0---4p0------0---4p0------0---4p0-----0---4p0-------0---4p0------4~---
A--0---0-----0--------------------------------------------------------5~---
E---------------3---3-----3--2---2-------2---2------2--2---2----------3~---



CHORUS

"Don't you shiver..."
G1
e-------------------------------------------------------------------
B-------------------------------------------------------------------
G-------------------------------------------------------------------
D---2/4-4-4-4/2-2-2-2/5-5-5-5/2-2-2-2/4-4-4-4/2-2-2----------------- (x2)
A---------------------------------------------------2-2-2-2/5-5-5---
E-------------------------------------------------------------------

G1
e--------------------------------------------------
B--------------------------------------------------
G-----------------------------5-5/7/4--------------
D---2/4-4-4-4/2-2-2-2/5-5-5-5-----------2-2/4-0----
A--------------------------------------------------
E--------------------------------------------------


REPEAT VERSE and CHORUS

REPEAT INTRO "yeah I'll always be waiting for you..."

REPEAT CHORUS


ENDS with:
"So I look in your direction..."
G1
e----------------------
B---0--3--0--3--0--3---
G---4--4--4--4--4--4---
D---5--5--5--5--5--5---
A----------------------
E----------------------

*****Enjoy*******

if u want me to work out the tab to any other songs by
coldplay, let me know.  themuel@btinternet.com 

sunday 23rd september 2000


Comments