Coldplay - See You Soon Chords & Tabs

 

See You Soon Chords & Tabs

Coldplay Chords & Tabs

Version: 1 Type: Tab 0 ratings
1 star 2 stars 3 stars 4 stars 5 stars
comments

See You Soon Tab

   
SEE YOU SOON - COLDPLAY

Tabbed by Joe Brandon

Tuning - (low to high) E A E A C# E

Intro

There are only two little riffs you need to know for the intro, verses and
outro.  Don't pay too much attention to the strum pattern, just listen to
the song for the sound.

riff 1
strum (listen to song for rythm)

   /  \ /  \/  /   /   /       /          x3
e--0-----------0---0---0---0---0---0----
C#-3-----------5---7---0h2---2-0h2---2--
A--4-----------6---7---2-------2--------
E--0-----------0---0---0-------0--------
A--4-----------6---7---2-------2--------
E---------------------------------------

riff 2

   /  
e--0----0---0----0---0---0---0---0------
C#-8------8-7------7-0h2---2-0h2---2----
A--9--9-----7--7-----2-------2----------
E--0-----------------0-------0----------
A--9--------7--------2-------2----------
E---------------------------------------

Verse 1

riff 1
strum (same notes, different rythm pattern)
 
   /  \ /  \ /  /  \ /  \ / /                  x4
e--0---------0--0-----------0---0---0---0----
C#-3---------5--7-----------0h2---2-0h2---2--
A--4---------6--7-----------2-------2--------
E--0---------0--0-----------0-------0--------
A--4---------6--7-----------2-------2--------
E--------------------------------------------

Chorus (a lot easier than it sounds)
[ Tab from: http://www.guitartabs.cc/tabs/c/coldplay/see_you_soon_tab.html ]
     /  \ / / /       /   / / /  \ / / /      /  \ / / /  \ /  /
e--2/9--------4--7-6--4---2-4/9--------4--7-6-4--------5-----5/9-
C#---0--------0-------3---3-3-0--------0------3--------3-------0-
A----7--------2-------2---2-2-7--------2------2--------2-------7-
E----0--------0-------0---0-0-0--------0------0--------0-------0-
A----0--------0---------------0--------0-----------------------0-
E----------------------------------------------------------------

                                               and then into the next
  \ / / /  \ / / /  \ / /  / \ / /     /     /     /    verse, same as verse 1
e-------4--------4---------0-----5---5-5---5-4---4-0---0---
C#------0--------3---------2-----3--3--3--3--3--3--3--3----
A-------2--------2---------2-----4-4---4-4---4-4---4-4-----
E-------0--------0---------0-----0-----0-----0-----0-------
A-------0--------------------------------------------------
E----------------------------------------------------------
                                                            repeat all

outro

riff 1
strum

   /  \ /  \/  /   /   /       /          x4
e--0-----------0---0---0---0---0---0----
C#-3-----------5---7---0h2---2-0h2---2--
A--4-----------6---7---2-------2--------
E--0-----------0---0---0-------0--------
A--4-----------6---7---2-------2--------
E---------------------------------------

riff 2

   /                                      x4
e--0----0---0----0---0---0---0---0------
C#-8------8-7------7-0h2---2-0h2---2----
A--9--9-----7--7-----2-------2----------
E--0-----------------0-------0----------
A--9--------7--------2-------2----------
E--------------------------------------- 
                                         fini
Comments