Coldplay - Parachutes Chords & Tabs

 

Parachutes Chords & Tabs

Coldplay Chords & Tabs

Version: 1 Type: Tab 4 ratings
1 star 2 stars 3 stars 4 stars 5 stars
comments

Parachutes Tab

   
#----------------------------------PLEASE NOTE---------------------------------#
#This file is the author's own work and represents their interpretation of the #
#song. You may only use this file for private study, scholarship, or research. #
#------------------------------------------------------------------------------#

================================================================================
         Title : Parachutes
        Artist : Coldplay
         Album : Parachutes
Transcribed by : Jake Whiteman
================================================================================

Chord Diagrams (low to high)
----- --------

B	7 9 9 8 7 7
G#m	4 6 6 4 4 4
F#m	2 4 4 2 2 2
E	0 2 2 1 0 0


        B               G#m             B               G#m


E|--||----------------|---------------|---------------|---------------|-
B|--||*---------------|---------------|---------------|---------------|-
G|--||-----8----8---8-|----4----4---4-|----8----8---8-|----4----4---4-|-
D|--||----------------|---------------|---------------|---------------|-
A|--||*------9----9---|------6----6---|------9----9---|------6----6---|-
E|--||--7-------------|-4-------------|-7-------------|-4-------------|-

[ Tab from: http://www.guitartabs.cc/tabs/c/coldplay/parachutes_tab.html ]
   F#m                           E                             B


E|--------------|--------------|--------------|-------------||---------
B|--------------|--------------|--------------|------------*||---------
G|----2----2----|----2----2----|----1----1----|------1------||----8----
D|--------------|--------------|--------------|-------------||---------
A|------4-------|------4-------|------2-------|----------2-*||------9--
E|-2----------2-|-2----------2-|-0----------0-|--------0----||-7-------


           G#m             B               G#m             F#m


E|-------|---------------|---------------|---------------|--------------
B|-------|---------------|---------------|---------------|--------------
G|-8---8-|----4----4---4-|----8----8---8-|----4----4---4-|----2----2----
D|-------|---------------|---------------|---------------|--------------
A|---9---|------6----6---|------9----9---|------6----6---|------4-------
E|-------|-4-------------|-7-------------|-4-------------|-2----------2-


                   E


E-|--------------|--------------|------------||-
B-|--------------|--------------|------------||-
G-|----2----2----|----1---1-----|------------||-
D-|--------------|--------------|------------||-
A-|------4-------|------2-------|------------||-
E-|-2----------2-|-0--------0---|-(0)--------||-

Comments