Coldplay - Magic Chords & Tabs

 

Magic Chords & Tabs

Coldplay Chords & Tabs

Version: 1 Type: Bass Tab 0 ratings
1 star 2 stars 3 stars 4 stars 5 stars
comments

Magic Bass Tab

Title: Magic
Artist: Coldplay
Album: Ghost Stories
Tempo = 94

Tabbed by jaronthebassist

     Triplets
G ||-11-11-11-11-11-11---|--11----11----11----6--------6----------|
D ||o--------------------|----------------------------------------|
A ||o--------------------|----------------------------------------|
E ||-10-10-10-10-10-10---|--10----10----10----5--------5----------|

                                                                x9
--13-13-13-13-13-13---|--13----13----13----9--------9---------||
----------------------|--------------------------------------o||
----------------------|--------------------------------------o||
--12-12-12-12-12-12---|--12----12----12----9--------9---------||

                   rest x7
--11------------||-----|||-11-11-11-11-11-11---|
----------------||o---o|||o--------------------|
----------------||o---o|||o--------------------|
--10------------||-----|||-10-10-10-10-10-10---|


--11----11----11----6--------6----------|--13-13-13-13-13-13---|
----------------------------------------|----------------------|
----------------------------------------|----------------------|
--10----10----10----5--------5----------|--12-12-12-12-12-12---|
[ Tab from: http://www.guitartabs.cc/tabs/c/coldplay/magic_btab.html ]
                                        x10                  rest x7
--13----13----13----9--------9---------||--11------------||-----|||
--------------------------------------o||----------------||o---o|||
--------------------------------------o||----------------||o---o|||
--12----12----12----9--------9---------||--10------------||-----|||


-11-11-11-11-11-11---|--11----11----11----6--------6----------|
o--------------------|----------------------------------------|
o--------------------|----------------------------------------|
-10-10-10-10-10-10---|--10----10----10----5--------5----------|

                                                                x4
--13-13-13-13-13-13---|--13----13----13----9--------9---------||
----------------------|--------------------------------------o||
----------------------|--------------------------------------o||
--12-12-12-12-12-12---|--12----12----12----9--------9---------||


--11-11-11-11-11-11---|--11----11----11----6--------6----------|--13---||
----------------------|----------------------------------------|-------||
----------------------|----------------------------------------|-------||
--10-10-10-10-10-10---|--10----10----10----5--------5----------|--12---||
Comments