Coldplay - Low Chords & Tabs

 

Low Chords & Tabs

Coldplay Chords & Tabs

Version: 1 Type: Bass Tab 0 ratings
1 star 2 stars 3 stars 4 stars 5 stars
comments

Low Bass Tab

   
Tabbed By : hound_of_winter
Tuning: Standard

Intro A
G|---------------|---------------|---------------|---------------|
D|---------------|---------------|---------------|---------------|
A|---------------|---------------|---------------|---------------|
E|-8-8--8-8-8--8-|-8-8--8-8-8--8-|-5-5--5-5-5--5-|-5-5--5-5-5--5-|

G|---------------|---------------|---------------|---------------|
D|---------------|---------------|---------------|---------------|
A|---------------|---------------|---------------|---------------|
E|-0-0--0-0-0--0-|-0-0--0-0-0--0-|-5-5--5-5-5--5-|-5-5--5-5-5--5-|

Intro Bridge

G|---------------|---------------|---------------|---------------|
D|---------------|---------------|---------------|---------------|
A|---------------|---------------|---------------|---------------|
E|-8-8--8-8-8--8-|-8-8--8-8-8--8-|-8-8--8-8-8--8-|-8-8--8-8-8--8-|

Verse A
G|---------------|---------------|---------------|---------------|
D|---------------|---------------|---------------|---------------|
A|-7-7--7-7-7--7-|-7-7--7-5-5--5-|---------------|---------------|
E|---------------|---------------|-7-7--7-7-7--7-|-7-7--7-7-7--7-|

G|---------------|---------------|---------------|---------------|
D|---------------|---------------|---------------|---------------|
A|---------------|---------------|---------------|---------------|
E|-8-8--8-8-8--8-|-5-5--5-5-5--5-|-0-0--0-0-0--0-|-0-0--0-0-0--0-|

Play 4 times, then

Verse Bridge

E|-0-0--0-0-0--0-|-0-0--0-0-0--0-|-0-0--0-0-0--0-|-0-0--0-0-0--0-|

Intro A (twice)

Intro Bridge

Verse A (3 times)

Then play the second half of the Verse again

Verse Bridge

Intro A (4 times)

Last Part (This is pretty complete, there's lots of variations in 
the fills, I tabbed them all out..but feel free to play as you like.
just as music is supposed be, have fun with this!)

G|------------|------------|------------|------------|------------|
D|------------|------------|------------|------------|------------|
A|------------|------------|------------|------------|------------|
E|-3~~~-------|------0-3-3-|-3-0-3~~~---|------0-3-3-|-3-0-3~~~---|
[ Tab from: http://www.guitartabs.cc/tabs/c/coldplay/low_btab.html ]
G|------------|------------|------------|------------|------------|
D|------------|------------|------------|------------|------------|
A|------------|------------|------------|------------|------------|
E|------0-3-3-|-3-0-3~~~---|------0-3-5-|-3-0-3~~~---|------0-3-5-|

G|------------|------------|------------|------------|------------|
D|------------|------------|------------|------------|------------|
A|-3--3-3~~~--|--3--3-3-3--|------------|------------|------------|
E|------------|------------|-5--5-5-5~~~|---5-5~~~~s2|s5--5-5-5---|

G|------------|
D|------------|
A|------------|
E|-5--5-5-5---|

G|------------|------------|------------|------------|------------|
D|------------|------------|------------|------------|------------|
A|------------|------------|------------|------------|------------|
E|-3-3-3~~~---|------0-3-5-|-3~~~-------|------0-3-5-|-3~~~-------|

G|------------|------------|------------|------------|------------|
D|------------|------------|------------|------------|------------|
A|------------|------------|------------|------------|------------|
E|------0-3-3-|-0-3~~~-----|------0-3-5-|-3-0-3~~~---|------0-3-5-|

G|------------|------------|------------|------------|------------|
D|------------|------------|------------|------------|------------|
A|------------|------------|------------|------------|------------|
E|-0-0-0~~~---|-0-0-0--0-0-|-5-5-5~~~---|---5-5----s2|s5~~~-------|

G|------------|
D|------------|
A|------------|
E|-5--5-5-5---|

G|------------|------------|------------|------------|------------|
D|------------|------------|------------|------------|------------|
A|------------|------------|------------|------------|------------|
E|-3-3-3~~~---|------0-3-5-|-3~~~-------|------0-3-5-|-3~~~-------|

G|------------|------------|------------|------------|------------|
D|------------|------------|------------|------------|------------|
A|------------|------------|------3-----|------------|------------|
E|------0-3-3-|-0-3~~~-----|----------5-|-3-0-3~~~---|------0-3-5-|

G|------------|------------|------------|------------|------------|
D|------------|------------|------------|------------|------------|
A|------------|------------|------------|------------|------------|
E|-8-8-8~~~---|-8-8-8--8-8-|-5-5-5~~~---|---5-5----s2|s5--5-5-5---|

                End
G|------------|------------|
D|------------|------------|
A|------------|------------|
E|-5--5-5-5---|-3~~~~------|

Pretty good, huh? Rank me & I'll do more bass tabs. 
Come on, let me see 5 stars! Enjoy.


s   =   Slide
~~~ =   hold note
Comments