Coldplay - In My Place Chords & Tabs

 

In My Place Chords & Tabs

Coldplay Chords & Tabs

Version: 8 Type: Tab 0 ratings
1 star 2 stars 3 stars 4 stars 5 stars
comments

In My Place Tab

this is JUST the intro!!!
[ Tab from: http://www.guitartabs.cc/tabs/c/coldplay/in_my_place_tab_ver_8.html ]
---------------------------------------
--17------17-----------14------14------
-------------------16------16----------   repeat 3x
------14------14-----------------------
---------------------------------------
---------------------------------------

then play

---------------------------------------
--17------17------------14------14-----
--------------------16------16---------
------14----16/17----------------------
---------------------------------------
---------------------------------------
Comments