Coldplay - In My Place Chords & Tabs

 

In My Place Chords & Tabs

Coldplay Chords & Tabs

Version: 2 Type: Tab 2 ratings
1 star 2 stars 3 stars 4 stars 5 stars
comments

In My Place Tab

   
#----------------------------------PLEASE NOTE--------------------------------#
#This file is the author's own work and represents their interpretation of the#
#song. You may only use this file for private study, scholarship, or research.#
#-----------------------------------------------------------------------------#
#-- File created with Instab - http://www.pconline.com/~smcarey/instab.html --#
#-----------------------------------------------------------------------------#

Author/Artist: Coldplay
Title: In My Place
Album: Unknown
Transcribed by: Paul Forde
Email: purplejumper@hotmail.com

I first heared this song played live at Glastobury and thought it was great.  
I've only had chance to work out the main riff and the chords so far but i'll 
produce a more detailed tab at a later date.  

Any suggestions/comments please e-mail me

-12----12----------------12----12----------------12----12---------------------
----12----12-12-14-12-14----12----12-12-14-12-14----12----12-12-14-12-14------
------------------------------------------------------------------------------
------------------------------------------------------------------------------
------------------------------------------------------------------------------
------------------------------------------------------------------------------
                                                                              
[ Tab from: http://www.guitartabs.cc/tabs/c/coldplay/in_my_place_tab_ver_2.html ]
-12----12-------------------12----12----------------12----12------------------
----12----12/14-12-14-12-14----12----12-12-14-12-14----12----12-12-14-12-14---
------------------------------------------------------------------------------
------------------------------------------------------------------------------
------------------------------------------------------------------------------
------------------------------------------------------------------------------
                                                                              

-12----12----------------12----12---------------------------------------------
----12----12-12-14-12-14----12----12/14-12-14-12-14-10------------------------
------------------------------------------------------------------------------
------------------------------------------------------------------------------
------------------------------------------------------------------------------
------------------------------------------------------------------------------
                                                                              
Chords used

A:   002220
D:   000232
F#m: 244222
C#m: 446654
E:   022100

Main riff:  A F#m C#m E

Verse: A F#m C#m E

Chorus: D A E   The chorus then ends on D followed by  --------4--  
                Before returning to the main riff.     ----3------
                                                       --4--------
                                                       -----------
                                                       -----------
                                                       ----------- 


The song then basicly repeats those chords until the end.  ENJOY!!













Comments