Coldplay - In My Place Chords & Tabs

 

In My Place Chords & Tabs

Coldplay Chords & Tabs

Version: 10 Type: Tab 0 ratings
1 star 2 stars 3 stars 4 stars 5 stars
comments

In My Place Tab

   
#----------------------------------PLEASE NOTE---------------------------------#
#This file is the author's own work and represents their interpretation of the #
#song. You may only use this file for private study, scholarship, or research. #
#------------------------------------------------------------------------------#

                                   IN MY PLACE
                             As recorded by Coldplay
                (From the 2002 Album A RUSH OF BLOOD TO THE HEAD)

Music by Guy Berryman. Jon Buckland, Will Champion and Chris Martin
Transcribed by Juan Carlos Almodovar (Juanky) PR!

          A                 A/G#                 C#min               E    
     x 0 2 2 2 x         4 x 2 2 2 x         x 4 6 6 5 x        x 7 9 9 9 x 

       F#min7                 D         
     2 x 2 2 2 x         x x 0 2 3 2   

                                        
Gtr I (E A D G B E) - 'Clean Tone Gtr1'
Gtr II (E A D G B E) - 'Clean Tone Gtr2'
Gtr III (E A D G B E) - 'Clean Gtr3 *Capo on 2nd Fret'

*If you don't have a Capo to play the parts for Guitar 3, play those chords 
up there instead.(Gtr.3)

Here's is the whole song, this song is great. This song makes you feel a
certain special way, that's why I was inspired to post it on this website.
There's a way to play this song using just 2 guitars. Play the Gtr2 parts
while using a delay effect, it has to be around 417ms to produce the same
sound effect that Gtr.2 makes, the effect level should be 60%, the amount
of feedback shound be around 0-10%,and it should be a single delay or mono.
*If you don't have a Capo to play the parts for Guitar 3, play those chords 
up there instead.(Gtr.3)

*Note Before you start playing*
If you are not used to reading this kind of tabs (symbols) please read all
the directions that are found at the end of this (Power)Tab. Enjoy!
Best viewed using (Courier New or Courier)

Tempo: Q=72 (S10w R0Ck)
       4/4
 *Intro*
<2-Bar Rest> Gtr I
|----|----||--12---12-----------9-----9---|-12---12-----------9-----9-----|
|----|----||o-------------12------12------|-------------12------12--------|
|----|----||-----9----9-------------------|----9----9---------------------|
|----|----||------------------------------|-------------------------------|
|----|----||o-----------------------------|-------------------------------|
|----|----||------------------------------|-------------------------------|
|
|             Gtr II
|----|----||--------------12--------------|-------------12----------------|
|----|----||o------------------12s14s12s==|=14---------------12s14s12s====|
|----|----||------------------------------|-------------------------------|
|----|----||------------------------------|-------------------------------|
|----|----||o-----------------------------|-------------------------------|
|----|----||------------------------------|-------------------------------|
|
|             Gtr III      
|----|----||------------------------------|--------------2-2--2--2--2-2---|
|----|----||o--0----0-0-0--0-0--0--0--0-0-|--3----3-3-3--3-3--3--3--3-3---|
|----|----||---0----0-0-0--0-0--0--0--0-0-|--4----4-4-4--2-2--2--2--2-2---|
|----|----||---0----0-0-0--0-0--0--0--0-0-|--4----4-4-4--0-0--0--0--0-0---|
|----|----||o--x----x-x-x--x-x--x--x--x-x-|--2----2-2-2-------------------|
|----|----||---3----3-3-3--2-2--2--2--2-2-|-------------------------------|


|-12---12-----------9-----9---|-12---12------------------9-----9----||
|-------------12------12------|---------12s14------12------12------o||
|----9----9-------------------|----9--------------------------------||
|-----------------------------|-------------------------------------||
|-----------------------------|------------------------------------o||
|-----------------------------|-------------------------------------||
|
|-------------12--------------|-------------------------------------||
|-14---------------12s14s12s==|=14--------------12s14s==12-12-12---o||
|-----------------------------|-------------------------------------||
|-----------------------------|-------------------------------------||
|-----------------------------|------------------------------------o||
|-----------------------------|-------------------------------------||
|
|-----------------------------|---------------------2-2--2--2--2-2--||
|--0----0-0-0--0-0--0--0--0-0-|--3----3-----3-3-----3-3--3--3--3-3-o||
|--0----0-0-0--0-0--0--0--0-0-|--4----4-----4-4-----2-2--2--2--2-2--||
|--0----0-0-0--2-2--2--2--2-2-|--4----4-----4-4-----0-0--0--0--0-0--||
|--x----x-x-x--2-2--2--2--2-2-|--2----2-----2-2--------------------o||
|--3----3-3-3--0-0--0--0--0-0-|-------------------------------------||


   *Verse* (In my place..  In my place___)
    Gtr I
||------------|-----|
||o-10--------|-----|
||------------|-----|
||------------|-----|
||o-----------|-----|
||------------|-----|
|
|   Gtr III
||------------|-----|
||o--0--------|-----|
||---0--------|-----|
||---0--------|-----|
||o--x--------|-----|
||---3--------|-----|

(..I was lost___ oh yeah)
|---------|-----|
|---------|-----|
|---------|-----|
|---------|-----|
|---------|-----|
|---------|-----|


 Play this 4-bar riff the 2nd time (NOT THE 1rst Time)
 The 1st time, don't play a thing, until the chorus*
  Gtr II
|---------------------------|-------------------------|
|-10-------10---9-------9---|-9-------9---9-------9---|
|----9-(9)----9---9-(9)---9-|---9-(9)---9---9-(9)---9-|
|---------------------------|-------------------------|
|---------------------------|-------------------------|
|---------------------------|-------------------------|


|---------------------------|-------------------------|
|-10-------10---9-------9---|-9-------9---9-------9---|
|----9-(9)----9---9-(9)---9-|---9-(9)---9---9-(9)---9-|
|---------------------------|-------------------------|
|---------------------------|-------------------------|
|---------------------------|-------------------------|


 *Chorus*
  Gtr I
|------------------------|-------------------------|
|------------------------|---------7-7-9-9-9-9-----|
|-7--7-7-(7)-7-----7-7-7-|-6-6-6-7-7-7-9-9-9-9-9p7-|
|-7--7-7-(7)-7-----7-7-7-|-7-7-7---7-7-9-9-9-9-9p7-|
|-9--9-9-(9)-9-7h9-9-9-9-|-7-7-7---5-5-7-7-7-7-----|
|------------------------|-5-5-5-------------------|
|
| Gtr III
|------------------------|-------------2-2-2-2-2-2-|
|-1--1-1-(1)-1-----1-1-1-|-0-0-0-0-0-0-3-3-3-3-3-3-|
|-0--0-0-(0)-0-----0-0-0-|-0-0-0-0-0-0-2-2-2-2-2-2-|
|-2--2-2-(2)-2-0h2-2-2-2-|-0-0-0-0-0-0-0-0-0-0-0-0-|
|-3--3-3-(3)-3-----3-3-3-|-x-x-x-x-x-x-------------|
|-3--3-3-(3)-3-----3-3-3-|-3-3-3-3-3-3-------------|


|------------------------|-------------------------|
|------------------------|---------7-7-9-9-9-9-----|
|-7--7-7-(7)-7-----7-7-7-|-6-6-6-7-7-7-9-9-9-9-9p7-|
|-7--7-7-(7)-7-----7-7-7-|-7-7-7---7-7-9-9-9-9-9p7-|
|-9--9-9-(9)-9-7h9-9-9-9-|-7-7-7---5-5-7-7-7-7-----|
|------------------------|-5-5-5-------------------|
|
|------------------------|-------------2-2-2-2-2-2-|
|-1--1-1-(1)-1-----1-1-1-|-0-0-0-0-0-0-3-3-3-3-3-3-|
|-0--0-0-(0)-0-----0-0-0-|-0-0-0-0-0-0-2-2-2-2-2-2-|
|-2--2-2-(2)-2-0h2-2-2-2-|-0-0-0-0-0-0-0-0-0-0-0-0-|
|-3--3-3-(3)-3-----3-3-3-|-x-x-x-x-x-x-------------|
|-3--3-3-(3)-3-----3-3-3-|-3-3-3-3-3-3-------------|


|------------------------|-------------------------|
|------------------------|---------7-7-9-9-9-9-----|
|-7--7-7-(7)-7-----7-7-7-|-6-6-6-7-7-7-9-9-9-9-9p7-|
|-7--7-7-(7)-7-----7-7-7-|-7-7-7---7-7-9-9-9-9-9p7-|
|-9--9-9-(9)-9-7h9-9-9-9-|-7-7-7---5-5-7-7-7-7-----|
|------------------------|-5-5-5-------------------|
|
|------------------------|-------------2-2-2-2-2-2-|
|-1--1-1-(1)-1-----1-1-1-|-0-0-0-0-0-0-3-3-3-3-3-3-|
|-0--0-0-(0)-0-----0-0-0-|-0-0-0-0-0-0-2-2-2-2-2-2-|
|-2--2-2-(2)-2-0h2-2-2-2-|-0-0-0-0-0-0-0-0-0-0-0-0-|
|-3--3-3-(3)-3-----3-3-3-|-x-x-x-x-x-x-------------|
|-3--3-3-(3)-3-----3-3-3-|-3-3-3-3-3-3-------------|

                       Let Ring------|
|----------------------|----------------||
|----------------------|-------9-(9)----||
|-7--7-7-(7)-7-7-7-7-7-|---7------------||
|-7--7-7-(7)-7-7-7-7-7-|-9---9----------||
|-9--9-9-(9)-9-9-9-9-9-|----------------||
|----------------------|----------------||
|                       Let Ring------|
|----------------------|-------2-(2)----||
|-1--1-1-(1)-1-1-1-1-1-|---3------------||
|-0--0-0-(0)-0-0-0-0-0-|-2---2----------||
|-2--2-2-(2)-2-2-2-2-2-|----------------||
|-3--3-3-(3)-3-3-3-3-3-|----------------||
|-3--3-3-(3)-3-3-3-3-3-|----------------||


 *Fist Interlude*
 
1.______________________________________________________________________
_______________          
  Gtr I
|-12---12-----------9-----9---|-12---12-----------9-----9---|-12---12-----------9-----9---|
|-------------12------12------|-------------12------12------|-------------12------12------|
|----9----9-------------------|----9----9-------------------|----9----9-------------------|
|-----------------------------|-----------------------------|-----------------------------|
|-----------------------------|-----------------------------|-----------------------------|
|-----------------------------|-----------------------------|-----------------------------|
|
| Gtr II
|-------------12--------------|-------------12--------------|-------------12--------------|
|------------------12s14s12s==|=14---------------12s14s12s==|=14---------------12s14s12s==|
|-----------------------------|-----------------------------|-----------------------------|
|-----------------------------|-----------------------------|-----------------------------|
|-----------------------------|-----------------------------|-----------------------------|
|-----------------------------|-----------------------------|-----------------------------|
|
| Gtr III
|-----------------------------|--------------2-2--2--2--2-2-|-----------------------------|
|--0----0-0-0--0-0--0--0--0-0-|--3----3-3-3--3-3--3--3--3-3-|--0----0-0-0--0-0--0--0--0-0-|
|--0----0-0-0--0-0--0--0--0-0-|--4----4-4-4--2-2--2--2--2-2-|--0----0-0-0--0-0--0--0--0-0-|
|--0----0-0-0--0-0--0--0--0-0-|--4----4-4-4--0-0--0--0--0-0-|--0----0-0-0--2-2--2--2--2-2-|
|--x----x-x-x--x-x--x--x--x-x-|--2----2-2-2-----------------|--x----x-x-x--2-2--2--2--2-2-|
|--3----3-3-3--2-2--2--2--2-2-|-----------------------------|--3----3-3-3--0-0--0--0--0-0-|
[ Tab from: http://www.guitartabs.cc/tabs/c/coldplay/in_my_place_tab_ver_10.html ]
                                       *Second Interlude*
___________________________________    2.______________________
|-12---12------------------9-----9----||-12---12-------9-----9-|-12---12-------9-----9----|
|---------12s14------12------12------o||-----------12----12----|-----------12----12-------|
|----9--------------------------------||----9----9-------------|----9----9----------------|
|-------------------------------------||-----------------------|--------------------------|
|------------------------------------o||-----------------------|--------------------------|
|-------------------------------------||-----------------------|--------------------------|
|
|-------------------------------------||-----------12----------|-----------12-------------|
|-14--------------12s14s==12-12-12---o||--------------12s14s12s|=14-----------12s14s12----|
|-------------------------------------||-----------------------|--------------------------|
|-------------------------------------||-----------------------|--------------------------|
|------------------------------------o||-----------------------|--------------------------|
|-------------------------------------||-----------------------|--------------------------|
|
|---------------------2-2--2--2--2-2--||-----------------------|--------------------------|
|--3----3-----3-3-----3-3--3--3--3-3-o||-----------------------|--------------------------|
|--4----4-----4-4-----2-2--2--2--2-2--||-----------------------|--------------------------|
|--4----4-----4-4-----0-0--0--0--0-0--||-----------------------|--------------------------|
|--2----2-----2-2--------------------o||-----------------------|--------------------------|
|-------------------------------------||-----------------------|--------------------------|


|-12---12-------9-----9-|-12---12----------9-----9-|
|-----------12----12----|--------------12----12----|
|----9----9-------------|----9----9----------------|
|-----------------------|--------------------------|
|-----------------------|--------------------------|
|-----------------------|--------------------------|
|
|-----------12----------|--------------------------|
|-14-----------12s14s12s|=14--------12s14s12-12-12-|
|-----------------------|--------------------------|
|-----------------------|--------------------------|
|-----------------------|--------------------------|
|-----------------------|--------------------------|


|-12---12-------9-----9-|-12---12-----------9-----9-|
|-----------12----12----|---------------12----12----|
|----9----9-------------|----9-----9----------------|
|-----------------------|---------------------------|
|-----------------------|---------------------------|
|-----------------------|---------------------------|
|
|-10--------12----------|--9------12-----------9----|
|--------------12s14s12-|------------12s14-12----12-|
|-----------------------|---------------------------|
|-----------------------|---------------------------|
|-----------------------|---------------------------|
|-----------------------|---------------------------|


|-12---12-------9-----9-|-12---12-----------9-----9-|
|-----------12----12----|---------------12----12----|
|----9----9-------------|----9-----9----------------|
|-----------------------|---------------------------|
|-----------------------|---------------------------|
|-----------------------|---------------------------|
|
|-10--------12-----9----|--9------12-----------9----|
|--------------12----12-|------------12s14-12----12-|
|-----------------------|---------------------------|
|-----------------------|---------------------------|
|-----------------------|---------------------------|
|-----------------------|---------------------------|


 *Bridge*
  Gtr I
|-12---12-----------9-----9---|
|-------------12------12------|
|----9----9-------------------|
|-----------------------------|
|-----------------------------|
|-----------------------------|
|
| Gtr II
|-------------12--------------|
|------------------12s14s12s==|
|-----------------------------|
|-----------------------------|
|-----------------------------|
|-----------------------------|
|
| Gtr III
|-----------------------------|
|--0----0-0-0--0-0--0--0--0-0-|
|--0----0-0-0--0-0--0--0--0-0-|
|--0----0-0-0--0-0--0--0--0-0-|
|--x----x-x-x--x-x--x--x--x-x-|
|--3----3-3-3--2-2--2--2--2-2-|


|-12---12-----------9-----9---|-12---12-----------9-----9---|
|-------------12------12------|-------------12------12------|
|----9----9-------------------|----9----9-------------------|
|-----------------------------|-----------------------------|
|-----------------------------|-----------------------------|
|-----------------------------|-----------------------------|
|
|-------------12--------------|-------------12--------------|
|-14---------------12s14s12s==|=14---------------12s14s12s==|
|-----------------------------|-----------------------------|
|-----------------------------|-----------------------------|
|-----------------------------|-----------------------------|
|-----------------------------|-----------------------------|
|
|--------------2-2--2--2--2-2-|-----------------------------|
|--3----3-3-3--3-3--3--3--3-3-|--0----0-0-0--0-0--0--0--0-0-|
|--4----4-4-4--2-2--2--2--2-2-|--0----0-0-0--0-0--0--0--0-0-|
|--4----4-4-4--0-0--0--0--0-0-|--0----0-0-0--2-2--2--2--2-2-|
|--2----2-2-2-----------------|--x----x-x-x--2-2--2--2--2-2-|
|-----------------------------|--3----3-3-3--0-0--0--0--0-0-|


|-12---12------------------9-----9---|
|---------12s14------12------12------|
|----9-------------------------------|
|------------------------------------|
|------------------------------------|
|------------------------------------|
|
|------------------------------------|
|-14--------------12s14s==12-12-12---|
|------------------------------------|
|------------------------------------|
|------------------------------------|
|------------------------------------|
|
|---------------------2-2--2--2--2-2-|
|--3----3-----3-3-----3-3--3--3--3-3-|
|--4----4-----4-4-----2-2--2--2--2-2-|
|--4----4-----4-4-----0-0--0--0--0-0-|
|--2----2-----2-2--------------------|
|------------------------------------|


|-12---12-----------9-----9---|-12---12-----------9-----9-----|
|-------------12------12------|-------------12------12--------|
|----9----9-------------------|----9----9---------------------|
|-----------------------------|-------------------------------|
|-----------------------------|-------------------------------|
|-----------------------------|-------------------------------|
|
|-------------12--------------|-------------12----------------|
|------------------12s14s12s==|=14---------------12s14s12-----|
|-----------------------------|-------------------------------|
|-----------------------------|-------------------------------|
|-----------------------------|-------------------------------|
|-----------------------------|-------------------------------|
|
|-----------------------------|--------------2-2--2--2--2-2---|
|--0----0-0-0--0-0--0--0--0-0-|--3----3-3-3--3-3--3--3--3-3---|
|--0----0-0-0--0-0--0--0--0-0-|--4----4-4-4--2-2--2--2--2-2---|
|--0----0-0-0--0-0--0--0--0-0-|--4----4-4-4--0-0--0--0--0-0---|
|--x----x-x-x--x-x--x--x--x-x-|--2----2-2-2-------------------|
|--3----3-3-3--2-2--2--2--2-2-|-------------------------------|


|-12---12-----------9-----9---|-12---12------------------9-----9---|
|-------------12------12------|---------12s14------12------12------|
|----9----9-------------------|----9-------------------------------|
|-----------------------------|------------------------------------|
|-----------------------------|------------------------------------|
|-----------------------------|------------------------------------|
|
|-------------12--------------|------------------------------------|
|-14---------------12s14s12s==|=14--------------12s14s==12-12-12---|
|-----------------------------|------------------------------------|
|-----------------------------|------------------------------------|
|-----------------------------|------------------------------------|
|-----------------------------|------------------------------------|
|
|-----------------------------|---------------------2-2--2--2--2-2-|
|--0----0-0-0--0-0--0--0--0-0-|--3----3-----3-3-----3-3--3--3--3-3-|
|--0----0-0-0--0-0--0--0--0-0-|--4----4-----4-4-----2-2--2--2--2-2-|
|--0----0-0-0--2-2--2--2--2-2-|--4----4-----4-4-----0-0--0--0--0-0-|
|--x----x-x-x--2-2--2--2--2-2-|--2----2-----2-2--------------------|
|--3----3-3-3--0-0--0--0--0-0-|------------------------------------|

*Outro*
Gtr I 
In My Place, In My Place were lines that I couldn't
|-----------|-----|
|-10--------|-----|
|-----------|-----|
|-----------|-----|
|-----------|-----|
|-----------|-----|
|
| Gtr III
|-----------|-----|
|--0--------|-----|
|--0--------|-----|
|--0--------|-----|
|--x--------|-----|
|--3--------|-----|

Change.  I was lost,___  oh__ yeah.
|---------|-----*|
|---------|-----*|
|---------|-----*|
|---------|-----*|
|---------|-----*|
|---------|-----*|
                   THE END

___[Lyrics]_______________________________________________.

*1st Verse************************************************
In my place in my place were lines that I couldn't 
change I was lost, oh yeah,
And I was lost,  I was lost crossed lines I shouldn't have
crossed  I was lost,  oh,  yeah.

*2nd Verse*
I was scared, I was scared, tired and under  pre-
pared, but I'll wait for it.
And if you go, if you go, leave me down here on my
own, and I'll wait for you,  yeah.

*Chorus*
Yeah, how long must you wait for___
it? Yeah,__ how long must you pay for__
it? Yeah,__ how long must you wait for__
it?                Oh, for it.

*Bridge*
Singing please, please, please, Come back and sing to me, 
to me, me. Come on and sing it loud, now,  now, come on 
and sing it out to me, me. Come back and sing.__

*Outro*
In my place, in my place__ were lines that I couldn't
change.  I was lost, oh yeah,___  oh__  yeah.
**********************************************************
__________________________________________________________.

Tablature Legend
----------------
 h   - hammer-on
 p   - pull-off
 b   - bend
 /\  - slide into or out of (from/to "nowhere")
 s   - legato slide
 S   - shift slide
 ~   - vibrato
 PM  - palm muting
 =   - hold bend; also acts as connecting device for hammers/pulls
 x   - muted notes; put finger over the string to mute the note

Bars And Music Simbols Legend
-----------------------------
 |  - bar
||  - double bar
||o - repeat start
o|| - repeat end
*|  - double bar (ending)
 :  - bar (freetime)
 $  - Segno
 &  - Coda
Comments