Coldplay - Harmless Chords & Tabs

 

Harmless Chords & Tabs

Coldplay Chords & Tabs

Version: 1 Type: Tab 0 ratings
1 star 2 stars 3 stars 4 stars 5 stars
comments

Harmless Tab

   
#---------------------------PLEASE NOTE------------------------------#
#This file is the author's own work and represents their interpreta- #
#tion of the song. You may only use this file for private study,scho-#
#larship, or research.                                               #
#--------------------------------------------------------------------#

Band: Coldplay
Song: Harmless
Album: None (Live version)
Words & Music: Guy Berrymen, Jon Buckland, Will Champion & Chris Martin
From: Zachary
E-mail: cicak_cobing@yahoo.com

Note: Hey, this is a nice short song. Try it for a while. Yeah, it's
      piano but I've tabbed it into acoustic guitar for you guys to
      play. Enjoy!

Standard Tuning: EADGbe

Chords Used:

  Gmaj Amin Fmaj Cmaj
e| 3    0    1    0
b| 3    1    1    1
G| 0    2    2    0
D| 0    2    3    2
A| 2    0    3    3
E| 3    X    X    X

Verse:

Gmaj           Amin
So I heard you say,

Gmaj       Amin
I got your get away,

Gmaj            Amin
I'm on a second trail,

Gmaj        Amin   Fmaj
As clear as crystal,
[ Tab from: http://www.guitartabs.cc/tabs/c/coldplay/harmless_tab.html ]
Note: When it comes to Cmaj, after you sing 'harmless...', use your
      little finger to press the 3rd barr at the 2nd string(b-string).
      then do this tab given with your Cmaj on. Tabs are give upon
      the correct timing.

Chorus:

e|-------------------------
b|-------------------3-1-0-
G|-------------------------
D|-------------------------
A|-------------------------
E|-------------------------
  Gmaj           Cmaj
  But it was harmless,

e|---------------------------
b|---------------------3-1-0-
G|---------------------------
D|---------------------------
A|---------------------------
E|---------------------------
  Gmaj             Cmaj
  It couldn't hurt you,

e|--------------------------
b|--------------------3-1-0-
G|--------------------------
D|--------------------------
A|--------------------------
E|--------------------------
  Gmaj            Cmaj
  Oh you were helpless,

e|----------------------------
b|----------------------3-1-0-
G|----------------------------
D|----------------------------
A|----------------------------
E|----------------------------
  Gmaj              Cmaj
  I know you'll get through,
Comments