Coldplay - Hardest Part Chords & Tabs

 

Hardest Part Chords & Tabs

Coldplay Chords & Tabs

Version: 1 Type: Tab 0 ratings
1 star 2 stars 3 stars 4 stars 5 stars
comments

Hardest Part Tab

   
Coldplay
The Hardest Part
Transcribed by J.Lidén

Intro

| Eb Gm/D | Cm7 Cm7 | Eb Eb | F F |

E-----3-------3-------3-------3-------3-------3-------3-------3---|
H---4---4---4---4---3---3---3---3---6---6---6---6---6---6---6---6-|
G-3-------3-------3-------3-------3-------3-------3-------3-------|
D-----------------------------------------------------------------|
A-----------------------------------------------------------------|
E-----------------------------------------------------------------|


E-----3-------3-------3-------3-------3-------3-------3-------3---|
H---4---4---4---4---4---4---4---4---6---6---6---6---6---6---6---6-|
G-3-------3-------3-------3-------3-------3-------3-------3-------|
D-----------------------------------------------------------------|
A-----------------------------------------------------------------|
E-----------------------------------------------------------------|

Verse

| Gm Eb | Bb F/A | x4 

And the hardest part
Was letting go not taking part
Was the hardest part

And the strangest thing
was waiting for that bell to ring
It was the strangest start 

Chorus

| Eb Eb | Bb F/A | x3

I could feel it go down
It is sweet I could taste in my mouth
Silver lining the clouds

| Gm F Bb Gm/D | Cm Cm |
[ Tab from: http://www.guitartabs.cc/tabs/c/coldplay/hardest_part_tab.html ]
Oh and I
I wish that I could work it out 

Solo 

| Gm Eb | Bb F/A | x2 

E---------------------------------------|
H-------------3-----3-------------------|
G-3-2-0---3-5---3-5---3-2b3b2b3b2...----|
D---------------------------------------|
A---------------------------------------|
E---------------------------------------|

Verse

| Gm Eb | Bb F/A | x4 

And the hardest part
Was letting go not taking part
You reall broke my heart

And I tried to sing
But I couldn't think of anything
That was the hardest part 

Chorus

| Eb Eb | Bb F/A | x3

I could feel it go down
You left the sweetest taste in my mouth
Your silver lining the clouds

| Gm F Bb Gm/D | Cm Cm |

Oh and I

| Gm F Bb Gm/D | F F |

Oh and I
I wonder what it's all about

Outro

| Eb Gm/D | Cm7 Cm7 | x3

| Eb Eb | F F |

| Eb Gm/D | Cm7 Cm7 | x3

Everything I know is wrong
Everything I do just comes undone
And everything is torn apart 

| Eb Eb | F F | x2

Oh and it's the hardest part
That's the hardest part
Yeah that's the hardest part
That's the hardest part

| Eb Gm/D | Cm7 Cm7 | <- repeat and fade out
Comments