Coldplay - Green Eyes Chords & Tabs

 

Green Eyes Chords & Tabs

Coldplay Chords & Tabs

Version: 1 Type: Tab 0 ratings
1 star 2 stars 3 stars 4 stars 5 stars
comments

Green Eyes Tab

-----------------------------------------------------------------------
			     Green Eyes - Coldplay
-----------------------------------------------------------------------
Tabbed by:  Levi Rooney
Email:  dancewithyourguitar@hotmail.com

Tuning:  Standard

The strumming is a shuffle.  Hit the bass strings on the first beat of each
chord.  Listen to the record for the accents on the strums.  Tell me what you
think.

Verse:
e|---0----0----0-0---
B|---2----5----3-3---
G|---2----4----4-2---		x4
D|---2----2----4-4---
A|---0----x----2-2---
E|---x----4----x-x---
[ Tab from: http://www.guitartabs.cc/tabs/c/coldplay/green_eyes_tab.html ]
Pre-Chorus:
e|---0----0----0----0---
B|---3----3----2----5---
G|---4----2----2----4---	x2
D|---4----0----2----2---
A|---2----x----0----x---
E|---x----x----x----4---

Chorus:
e|---0----0----0--0--0---
B|---3----3----2--0--3---
G|---4----2----2--0--4---	x2
D|---4----0----2--0--4---
A|---2----x----0--2--2---
E|---x----x----x--3--x---

Outro:  Green eyes, green eyes, 
	Wh- oh oh ohh (x4)
e|---0----0----0----0----0----0----0---
B|---3----3----3----2----3----3----3---
G|---4----4----4----2----4----4----4---
D|---4----4----4----2----4----4----4---
A|---2----2----2----0----2----2----2---
E|---x----x----x----x----x----x----x---

Honey you are a rocků:
e|---0----0----0---
B|---2----5----3---
G|---2----4----4---
D|---2----2----4---
A|---0----x----2---
E|---x----4----x---
Comments