Coldplay - God Put A Smile Upon Your Face Chords & Tabs

 

God Put A Smile Upon Your Face Chords & Tabs

Coldplay Chords & Tabs

Version: 3 Type: Chords

God Put A Smile Upon Your Face Chords

   
God Put A Smile Upon Your Face Ė Coldplay

This song is played with standard tuning, and thereís no capo used in this song.

Tabbed by Espen Holm

Chords:

Db:   x46664
E6:   022120
Eb7:  xx1323
Dmaj7:xx0222
Amaj7:x02120
E:    022100
F#:   244322


Intro:  Db          E6             Eb7     Dmaj7   x2


Db          E6             Eb7     Dmaj7
Where do we go nobody knows
Db          E6              Eb7    Dmaj7
Iíve got to say Iím on my way down
Db          E6                     Eb7     Dmaj7
God give me style and give me grace
Db        E6                 Eb7     Dmaj7
God put a smile upon my face


Guitar 2, played togheter with guitar 1 between the verses:

Db         E6         Eb7        Dmaj7 Db          E6         Eb7 Dmaj7
----9---------------------------------------9--------------------------------|
------12p9-12---12-9-5/8-----------7----------12p9-12---12-9-5/8----7--------|
---------------------------------------6-----------------------------------6-|
-----------------------------------------------------------------------------|
-----------------------------------------------------------------------------|
-----------------------------------------------------------------------------|


Db          E6                 Eb7     Dmaj7
Where do we go to draw the line?
Db          E6                 Eb7         Dmaj7
Iíve got to say I wasted all my time honey, honey
Db          E6                  Eb7     Dmaj7
Where do I go to fall from grace
Db          E6                     Eb7     Dmaj7
God put a smile upon my face, yeah

Amaj7             E           F#
Now, when you work it out Iím worse than you
Amaj7              E         F#
Yeah, when you work it out I want it too
Amaj7             E             F#
Now, when you work out where to draw the line
Amaj7                E  F#
your guess is as good as mine


Guitar 2, played togheter with guitar 1 between the the first chorus and the third verse:
[ Tab from: http://www.guitartabs.cc/tabs/c/coldplay/god_put_a_smile_upon_your_face_crd_ver_3.html ]
Db         E6         Eb7        Dmaj7 Db          E6         Eb7 Dmaj7
----9---------------------------------------9--------------------------------|
------12p9-12---12-9-5/8-----------7----------12p9-12---12-9-5/8----7--------|
---------------------------------------6-----------------------------------6-|
-----------------------------------------------------------------------------|
-----------------------------------------------------------------------------|
-----------------------------------------------------------------------------|

Db          E6             Eb7     Dmaj7
Where do we go, nobody knows
Db          E6                  Eb7     Dmaj7
Donít ever say youíre on your way down, when
Db            E6                     Eb7     Dmaj7
God gave you style and gave you grace
Db            E6                 Eb7     Dmaj7
And God put a smile upon your face, oh yeah

Amaj7             E           F#
Now, when you work it out Iím worse than you
Amaj7              E         F#
Yeah, when you work it out I want it too
Amaj7             E             F#
Now, when you work out where to draw the line
Amaj7                E  F#
your guess is as good as mine

                       Db          E6
Eb7     Dmaj7       Db          E6
itís as good as mine
Eb7     Dmaj7       Db          E6
itís as good as mine
Eb7     Dmaj7       Db          E6          Eb7
itís as good as mine na na na na na na na na na na

        Dmaj7  Amaj7     E
itís as good as mine
F#         Amaj7      E
as good as mine
F#         Amaj7      E
as good as mine
F#         Amaj7      E     F
as good as mine


Db          E6             Eb7     Dmaj7
Where do we go, nobody knows
Db          E6                  Eb7     Dmaj7
Donít ever say youíre on your way down, when
Db            E6                     Eb7     Dmaj7
God gave you style and gave you grace
Db            E6                 Eb7     Dmaj7
And God put a smile upon your face