Coldplay - For You Chords & Tabs

 

For You Chords & Tabs

Coldplay Chords & Tabs

Version: 1 Type: Bass Tab

For You Bass Tab

Artist:	Coldplay
Title:	For You (not to be confused with Fix You)
Album:   Shiver

Tabbed by : Dingle
Tuning: Dropped D.
I tabbed this from a transcribed piano copy and using a chromatic tuner.
It is my first tab but I think its pretty close.

For the rhythm play with the actual song. Enjoy.

INTRO x2
G|------------------|
D|------------------|
A|---9--------------|
D|-9---9-----7-6-4--|

VERSE 0:38
G|-----------------------------------------|
D|-----------------------------------------|
A|----99--9h10p9------------99-------------|
D|-9--------------------9-------11--9------|
 If your lost...        Circumnavigate...

G|-------------------------------------------------------------------------|
D|-------------------------------------------------------------------------|
A|----99--9h10p9---------------------99---7---------9--------99----9h10p9--|
D|-9-----------------------------9---------9------------9------------------|
  All you ever...          For too                       And the way you...

G|--------------------------------------------------------------|
D|--------------------------------------------------------------|
A|------99-----------9------99-9h10p9---------------99--7-------|
D|---9-------11--9-------9------------------------9------9------|
   Circumnavigate...    And they seem...   with you.

FAST PART x4
G|-------------------------------------|
D|--------------------9----------------|
A|---------9---11------------12-11-7---|
D|--9----------------------------------|
[ Tab from: http://www.guitartabs.cc/tabs/c/coldplay/for_you_btab.html ]
2nd VERSE - 1:58
G|----------------------------------------|
D|----------------------------------------|
A|----99--9h10p9---9-------99-------------|
D|-9-------------------9-------11--9------|


G|-----------------------------------------------------------|
D|-----------------------------------------------------------|
A|----99--9h10p9---9-----99---7---------9---99----9h10p9-----|
D|-9------------------9--------9----------9------------------|
                                          Everyone of us is hurt...

G|------------------------------------------------------------------|
D|------------------------------------------------------------------|
A|------99----------------------99-9h10p9-------9---99--7---------9-|
D|---9-------11--9------------9-------------------9------9----------|
   And Everyone of us...        Everyone is...  Not you

G|---------------------------------------------|
D|---------------------------------------------|
A|----99--9h10p9---9-----------99-----------9--|  < this part is confusing.
D|-9-----------------------9-------11--9-------|
  Your eyes closed..       Your head hurts

G|---------------------------------------|
D|---------------------------------------|
A|----99--9h10p9---9-----99---7-------9--|
D|-9------------------9--------9---------|
   Your eyes feel...


FAST PART x4
G|-------------------------------------|
D|--------------------9----------------|
A|---------9---11------------12-11-7---|
D|--9----------------------------------|


OUTRO repeat 3:41
G|------------------------------------------|
D|------------------------------------------|
A|------------------------------------------|
D|--9-9-9-9-4-4-4-4------9-9-9-7-6-4-4-4-4--|