Coldplay - Fix You Chords & Tabs

 

Fix You Chords & Tabs

Coldplay Chords & Tabs

Version: 2 Type: Tab 0 ratings
1 star 2 stars 3 stars 4 stars 5 stars
comments

Fix You Tab

   
-----------------------------------------------------------------------
			     FIX YOU - Coldplay
-----------------------------------------------------------------------
Tabbed by: Rob VandenEnde
Email: rob_ende@hotmail.com

Tuning: Standard Tuning EADGBe

 Verse 1:
                e|0---0---0----0----0----0----0----0----0----0---0|
                B|6---6---6----6----6----5----5----3----3----6---6|
                G|8---8---8----8----8----8----8----5----5----7---7|
                D|8---8---8----8----8----8----8----5----5----8---8|
                A|6---6---6----6----6----5----5----3----3----8---8|
                E|0---0---0----0----0----0----0----0----0----6---6|

	   When you try your best but you don't succeed

         When you get what you want but not what you need

         When you feel so tired but you can't sleep  

         Stuck in reverse

Verse 2:
                e|0---0---0----0----0----0----0----0----0----0---0|
                B|6---6---6----6----6----5----5----3----3----6---6|
                G|8---8---8----8----8----8----8----5----5----7---7|
                D|8---8---8----8----8----8----8----5----5----8---8|
                A|6---6---6----6----6----5----5----3----3----8---8|
                E|0---0---0----0----0----0----0----0----0----6---6|
         When you lose something you can't replace  

         When you love someone but it goes to waste  
 
         Could it be worse?  
[ Tab from: http://www.guitartabs.cc/tabs/c/coldplay/fix_you_tab_ver_2.html ]
Chorus:
       e|0---0---0---0---0---0---0---0---0---0---0---0---0---0---0---0|
       B|6---6---6---6---6---6---6---6---6---6---6---6---6---6---6---6|
       G|8---8---8---8---7---7---7---7---8---8---8---7---7---8---8---8|
       D|8---8---8---8---8---8---8---8---8---8---8---8---8---8---8---8|
       A|6---6---6---6---8---8---8---8---6---6---6---8---8---6---6---6|
       E|0---0---0---0---6---6---6---6---0---0---0---6---6---0---0---0|
              
	            Lights will guide you home, and ignite your bones,    
       e|0---0---0---0---0---0---0---0---0------0-------0-------0|
       B|6---6---6---6---6---6---6---6---6------5-------3-------6|
       G|8---8---8---8---7---7---7---7---8------8-------5-------7|
       D|8---8---8---8---8---8---8---8---8------8-------5-------8|
       A|6---6---6---6---8---8---8---8---6------5-------3-------8| 
       E|0---0---0---0---6---6---6---6---0------0-------0-------6|

 And I will try to fix you  



Verse 3:

High up above or down below  
when you too in love to let it go  
If you never try you'll never know  
Just watch and learn



Chorus:
       e|0---0---0---0---0---0---0---0---0---0---0---0---0---0---0---0|
       B|6---6---6---6---6---6---6---6---6---6---6---6---6---6---6---6|
       G|8---8---8---8---7---7---7---7---8---8---8---7---7---8---8---8|
       D|8---8---8---8---8---8---8---8---8---8---8---8---8---8---8---8|
       A|6---6---6---6---8---8---8---8---6---6---6---8---8---6---6---6|
       E|0---0---0---0---6---6---6---6---0---0---0---6---6---0---0---0|
              
	            Lights will guide you home, and ignite your bones,    
        e|0---0---0---0---0---0---0---0---0|
        B|6---6---6---6---6---6---6---6---6|
        G|8---8---8---8---7---7---7---7---8|
        D|8---8---8---8---8---8---8---8---8|
        A|6---6---6---6---8---8---8---8---6| 
        E|0---0---0---0---6---6---6---6---0|

	        And I will try to fix you  


Bridge: e|0---0---0---0---0---0---0---0---0---0---0---0---|
        B|6---6---6---6---6---6---6---6---6---6---6---6---|
        G|8---8---8---8---8---8---8---8---8---8---8---8---|
        D|8---8---8---8---8---8---8---8---8---8---8---8---|
        A|6---6---6---6---6---6---6---6---6---6---6---6---|
        E|0---0---0---0---0---0---0---0---0---0---0---0---|

Solo:     
e|--------------------------------------------------------------------|
B|4-4-4-4-4-4-4-4-4-4-4-4-11-11-11-11-4-4-4-4-4-4-4-4-4-4-11-11-11-11-|
G|--------------------------------------------------------------------| 
D|--------------------------------------------------------------------|
A|--------------------------------------------------------------------|
E|--------------------------------------------------------------------|

e|--------------------------------------------------------------------|
B|4-4-4-4-4-4-4-4-4-4--11-11-11-11-4-4-4-4-3-3-3-3-3-3-3-3-3-3-3-3-3-3|
G|--------------------------------------------------------------------| 
D|--------------------------------------------------------------------| 
A|--------------------------------------------------------------------|
E|--------------------------------------------------------------------|
Comments