Coldplay - Fix You Chords & Tabs

 

Fix You Chords & Tabs

Coldplay Chords & Tabs

Version: 2 Type: Bass Tab 0 ratings
1 star 2 stars 3 stars 4 stars 5 stars
comments

Fix You Bass Tab

   
-------------------------------------------------------------------------------
			     Fix You - Coldplay
-------------------------------------------------------------------------------

Tabbed By : imessyou
e-mail: theblochead@hotmail.co.uk

Tuning: standard

These are the notes for the verse but there is something that makes me think the
organ played by Chris plays these notes, I think it's the sound. But I have tabbed
it for bass anyways

Intro/Verse
"When you try your best but you don't succeed..."
G|---------|----------|----------|-----------|
D|---------|8---10---8|----------|-----------|
A|-6---8-10|----------|-6----8-10|-----------|
E|---------|----------|----------|-10---8---6|
[ Tab from: http://www.guitartabs.cc/tabs/c/coldplay/fix_you_btab_ver_2.html ]
There is no bass in the chorus, which is kind of why I don't think there is a bass in the verse

However, the bass clearly kicks in for the beatiful, seraphim-like final chorus (begins at 3:02)

The bass mainly follows the chords but there are a couple of fills
G|------|------|------|------|------|------|------|------|
D|------|-6--6-|------|------|------|-6--6-|------|------|
A|-6--6-|------|-6--6-|------|------|------|-6--6-|------|
E|------|------|------|-6--6-|-8--8-|------|------|-6--6-|

Fill
G|--------------------|
D|-------------8------|
A|-6--8--10--------10-|
E|--------------------|

Great song. Email me with corrections if you want


| /  slide up
| \  slide down
| h  hammer-on
| p  pull-off
| ~  vibrato
| +  harmonic
| x  Mute note
===============================================================================
Comments