Coldplay - Dont Panic Chords & Tabs

 

Dont Panic Chords & Tabs

Coldplay Chords & Tabs

Version: 8 Type: Tab 0 ratings
1 star 2 stars 3 stars 4 stars 5 stars
comments

Dont Panic Tab

   
    ______________
   / Coldplay    /  This simple song is a tribute to the world we live in,
  / Don't Panic /   and to the lives we live. A sweet, little song, which
 / Parachutes  /    has always been my favourite Coldplay.
/_____________/

 Rhythm:    4/4
 Tempo:     124 bmp
 Guitar 1:  Clean Acoustic
 Guitar 2:  Clean Electric (light overdrive)
 Tunings:   E A D G B E (standard)

The Rhythm Figure:
| 1   +   2   +   3   +   4   +   |
| V   V ^   ^ V ^   ^ V ^   ^ V ^ |

|-0---x-0---0-0-0---0-x-0---0-0-0-|
|-1---x-1---1-1-0h1-1-x-1---1-1-0-|
|-2---x-2---2-2-0h2-2-x-2---2-2-0-|
|-3---x-3---3-3-3---3-x-3---3-3-3-|
|-3---x-3---3-3-3---3-x-3---3-3-3-|
|-1---x-1---1-1-1---1-x-1---1-1-1-|



INTRO:
|---------------------------------|--------------|
|---------------------------------|--------------|
|---------------------------------|--- Rhythm ---|
|---------------------------------|--- Figure ---|
|---------------------------------|--------------|
|---------------------------------|--------------|
|
|---------------------------------|--------------|
|---------------------------------|--------------|
|------------ Rhythm -------------|--- Rhythm ---|
|------------ Figure -------------|--- Figure ---|
|---------------------------------|--------------|
|---------------------------------|--------------|



VERSE:
||-0---x-0---0-0-0-0---x-0---0-0-0-|--------------||
||-1---x-1---1-1-1-1---x-1---1-1-1-|--------------||
||-2---x-2---2-2-2-0---x-0---0-0-0-|--- Rhythm ---||
||-2---x-2---2-2-2-2---x-2---2-2-2-|--- Figure ---||
||-0---x-0---0-0-0-3---x-3---3-3-3-|--------------||
||-----x---------------x-----------|--------------||
||
||-5---x-5---5-5-5--8---x--8----8--8--8-|--------------||
||-5---x-5---5-7-5--8---x--8----8--8--8-|--------------||
||-5---x-5---5-5-5--9---x--9----9--9--9-|--- Rhythm ---||
||-7---x-7---7-7-7-10---x-10---10-10-10-|--- Figure ---||
||-7---x-7---7-7-7-10---x-10---10-10-10-|--------------||
||-5---x-5---5-5-5--8---x--8----8--8--8-|--------------||



CHORUS:
|-1-1-1-1---1-x-1-1-1-1-1---1-1-1-|--------------------------------------------|
|-3-3-3-3---3-x-3-3-3-3-3---3-3-3-|--------------------------------------------|
|-2-2-2-2---2-x-2-2-2-2-2---2-2-2-|------------------- Rhythm -----------------|
|-0-0-0-0---0-x-0-0-0-0-0---0-0-0-|------------------- Figure -----------------|
|-------------x-------------------|--------------------------------------------|
|-------------x-------------------|--------------------------------------------|
|
|-5-5-5-5-5-5-5-5-7-7-7-7-8-8-8-8-|-8\-------------------------------15----15\-|
|---------------------------------|------5-5-5-5-5-5-5/---/10-/13~------13-----|
|---------------------------------|--------------------------------------------|
|---------------------------------|--------------------------------------------|
|---------------------------------|--------------------------------------------|
|---------------------------------|--------------------------------------------|


|-1-1-1-1---1-x-1-1-1-1-1---1-1-1-|---------------------------------|
|-3-3-3-3---3-x-3-3-3-3-3---3-3-3-|---------------------------------|
|-2-2-2-2---2-x-2-2-2-2-2---2-2-2-|------------- Rhythm ------------|
|-0-0-0-0---0-x-0-0-0-0-0---0-0-0-|------------- Figure ------------|
|-------------x-------------------|---------------------------------|
|-------------x-------------------|---------------------------------|
|
|---5-5-5-5-5-5-5-7-7-7-7-8-8-8-8-|-------5---------------5---------|
|---------------------------------|---5h6-----5h6p5---5h6-----5h6p5-|
|---------------------------------|---------------------------------|
|---------------------------------|---------------------------------|
|---------------------------------|---------------------------------|
|---------------------------------|---------------------------------|



VERSE



CHORUS


[ Tab from: http://www.guitartabs.cc/tabs/c/coldplay/dont_panic_tab_ver_8.html ]
SOLO:
|-0---x-0---0-0-0-0---x-0---0-0-0-|---------------------------------|
|-1---x-1---1-1-1-1---x-1---1-1-1-|---------------------------------|
|-2---x-2---2-2-2-0---x-0---0-0-0-|------------- Rhythm ------------|
|-2---x-2---2-2-2-2---x-2---2-2-2-|------------- Figure ------------|
|-0---x-0---0-0-0-3---x-3---3-3-3-|---------------------------------|
|-----x---------------x-----------|---------------------------------|
|
|---------------------------------|---------------------------------|
|-5-----8---6-5---5-----8---6-5---|-3-----1-------------------------|
|---------------------------------|---------------------------------|
|---------------------------------|---------------------------------|
|---------------------------------|---------------------------------|
|---------------------------------|---------------------------------|


|-0---x-0---0-0-0-0---x-0---0-0-0-|---------------------------------|
|-1---x-1---1-1-1-1---x-1---1-1-1-|---------------------------------|
|-2---x-2---2-2-2-0---x-0---0-0-0-|------------- Rhythm ------------|
|-2---x-2---2-2-2-2---x-2---2-2-2-|------------- Figure ------------|
|-0---x-0---0-0-0-3---x-3---3-3-3-|---------------------------------|
|-----x---------------x-----------|---------------------------------|
|
|---------------------------------|---------------------------------|
|-5-----8---6-5---5-----8---6-5-6-|-5-----1-------------------------|
|---------------------------------|---------------------------------|
|---------------------------------|---------------------------------|
|---------------------------------|---------------------------------|
|---------------------------------|---------------------------------|



CHORUS



BRIDGE:
||-0---x-0---0-0-0-0---x-0---0-0-0-|---------------------------------||
||-1---x-1---1-1-1-1---x-1---1-1-1-|---------------------------------||
||-2---x-2---2-2-2-0---x-0---0-0-0-|------------- Rhythm ------------||
||-2---x-2---2-2-2-2---x-2---2-2-2-|------------- Figure ------------||
||-0---x-0---0-0-0-3---x-3---3-3-3-|---------------------------------||
||-----x---------------x-----------|---------------------------------||
||
||------12----12----12----12----12----12----12----|-------5---------------5---------||
||-5/13----13----13----13----13----13----13----13-|---5h6-----5h6p5---5h6-----5h6p5-||
||------------------------------------------------|---------------------------------||
||------------------------------------------------|---------------------------------||
||------------------------------------------------|---------------------------------||
||------------------------------------------------|---------------------------------||



OUTRO:
|-0---x-0---0-0-0-0---x-0---0-0-0-|--------------|
|-1---x-1---1-1-1-1---x-1---1-1-1-|--------------|
|-2---x-2---2-2-2-0---x-0---0-0-0-|--- Rhythm ---|
|-2---x-2---2-2-2-2---x-2---2-2-2-|--- Figure ---|
|-0---x-0---0-0-0-3---x-3---3-3-3-|--------------|
|-----x---------------x-----------|--------------|
|
|-5---x-5---5-5-5--8---x--8----8--8--8-|--------------|
|-5---x-5---5-7-5--8---x--8----8--8--8-|--------------|
|-5---x-5---5-5-5--9---x--9----9--9--9-|--- Rhythm ---|
|-7---x-7---7-7-7-10---x-10---10-10-10-|--- Figure ---|
|-7---x-7---7-7-7-10---x-10---10-10-10-|--------------|
|-5---x-5---5-5-5--8---x--8----8--8--8-|--------------|


|-0---x-0---0-0-0-0---x-0---0-0-0-|-0---x-0-------------------------|
|-1---x-1---1-1-1-1---x-1---1-1-1-|-1---x-1-------------------------|
|-2---x-2---2-2-2-0---x-0---0-0-0-|-2---x-2-------------------------|
|-2---x-2---2-2-2-2---x-2---2-2-2-|-3---x-3-------------------------|
|-0---x-0---0-0-0-3---x-3---3-3-3-|-3---x-3-------------------------|
|-----x---------------x-----------|-1---x-1-------------------------|
|
|-5---x-5---5-5-5--8---x--8----8--8--8-|-0---x-0-------------------------|
|-5---x-5---5-7-5--8---x--8----8--8--8-|-1---x-1-------------------------|
|-5---x-5---5-5-5--9---x--9----9--9--9-|-2---x-2-------------------------|
|-7---x-7---7-7-7-10---x-10---10-10-10-|-3---x-3-------------------------|
|-7---x-7---7-7-7-10---x-10---10-10-10-|-3---x-3-------------------------|
|-5---x-5---5-5-5--8---x--8----8--8--8-|-1---x-1-------------------------|



LYRICS:

Verse: | Am C | Fmaj7 |
Bones are sinking like stones 
All that we fall for 
Homes places we've grown
All of us are done for

Chorus: | Dm | Fmaj7 |
And we live in a beautiful world
We live in a beautiful world

15/ may/ 05
Please mail me at Maitinin@gmail.com for comments or corrections!
Comments